Oops, an error
Loading. Please wait.

Gliding Ride Bass Tab

7 views 1 this week
no commentswrite comment
1 2 3 4 5
3 more votes to show rating
add to favorites
launch autoscroll
font size
0
reset
guitar tuner
Autoscroll
slow
fast
+/-
esc
set tempo
stop
Help us to improve Ultimate-Guitar.com Take our survey!
×
Author
Difficulty
novice
Tabbed by: 6METAL6BASSIST6
E-mail: petergriffinav@gmail.com

Tuning: EADG

G|----------------------------9-------------------------------9---|
D|--------------------------------7-------------------------------|
A|----------------------------------------------------------------|
E|----------------------------------------------------------------|

G|----------------------------9-------------------------------9---|
D|7-------------------------------7-------------------------------|
A|----------------------------------------------------------------|
E|----------------------------------------------------------------|

0:08

G|----------------------------9-------------------------------9---|
D|7-------------------------------7-------------------------------| x4
A|----------------------------------------------------------------|
E|----------------------------------------------------------------|

G|--------------------------------|
D|7-------------------------------|
A|--------------------------------|
E|--------------------------------|

G|--------------5-7---7-------9-----------------5-7---7-------9---|
D|7-------------------------------7-------------------------------|
A|----------------------------------------------------------------|
E|----------------------------------------------------------------|

0:30

G|----------------9---7-------9-------------------9---7-------9---|
D|7-------------------------------7-------------------------------| x4
A|----------------------------------------------------------------|
E|----------------------------------------------------------------|

G|----------------9---7-------9---|
D|7-------------------------------|
A|--------------------------------|
E|--------------------------------|

0:49

G|----------------------------7-------------------7---7---5---7---|
D|7-----------------------7-------5-------------------------------| x3
A|----------------------------------------------------------------|
E|----------------------------------------------------------------|

G|----------------------------------------------------------------|
D|7---------------------------------------------------------------|
A|----------------------------------------------------------------|
E|----------------------------------------------------------------|

G|--------------5-7---7-------9-----------------5-7---7-------9---|
D|7-------------------------------7-------------------------------|
A|----------------------------------------------------------------|
E|----------------------------------------------------------------|

1:10

G|----------------9---7-------9-------------------9---7-------9---|
D|7-------------------------------7-------------------------------| x4
A|----------------------------------------------------------------|
E|----------------------------------------------------------------|

G|----------------9---7-------9---|
D|7-------------------------------|
A|--------------------------------|
E|--------------------------------|

1:28

G|----------------------------7-------------------7---7---5---7---|
D|7-----------------------7-------5-------------------------------| x3
A|----------------------------------------------------------------|
E|----------------------------------------------------------------|

G|----------------------------------------------------------------|
D|7-------------------------------7-----------------------7---7---|
A|----------------------------------------------------------------|
E|----------------------------------------------------------------|

1:45

G|--------------7-9---9-------11----------------7-9---9-------11--|
D|9-------------------------------9-------------------------------| x2
A|----------------------------------------------------------------|
E|----------------------------------------------------------------|

G|----------------------------11------------------------------11--|
D|9-------------------------------9-------------------------------|
A|----------------------------------------------------------------|
E|----------------------------------------------------------------|

1:58

G|----------------------------11------------------------------11--|
D|9-------------------------------9-------------------------------| x4
A|----------------------------------------------------------------|
E|----------------------------------------------------------------|

G|----------------------------11--|
D|9-------------------------------|
A|--------------------------------|
E|--------------------------------|

2:16

G|----------------------------9-------------------9---9---7---9---|
D|9-----------------------9-------7-------------------------------| x3
A|----------------------------------------------------------------|
E|----------------------------------------------------------------|

G|----------------------------------------------------------------|
D|9-------------------------------9-----------------------9---8---|
A|----------------------------------------------------------------|
E|----------------------------------------------------------------|

G|----------------7---7-------9-----------------5-7---7-------9---|
D|7-------------------------------7-------------------------------|
A|----------------------------------------------------------------|
E|----------------------------------------------------------------|

G|--------------5-7---7-------9-----------------5-7---7-------9---|
D|7-------------------------------7-------------------------------| until fadeout. 
A|----------------------------------------------------------------|
E|----------------------------------------------------------------|
Suggest correction
Give kudos to tab author, rate the tab!
1 2 3 4 5
comments
print report bad tab
guest
You may want to rate the tab now too:
select rating
Wanna post a correction for this tab? Suggest correction