Oops, an error
Loading. Please wait.

I Dont Feel Like Dancing Bass Tab

2,119 views 6 this week
no commentswrite comment
1 2 3 4 5
accurate
x 6
add to favorites
launch autoscroll
font size
0
reset
guitar tuner
Autoscroll
slow
fast
+/-
esc
set tempo
stop
Help us to improve Ultimate-Guitar.com Take our survey!
×
Author
Difficulty
intermediate
I Dont Feel Like Dancing
This cover is by The German based band The Baseballs
Original Bassist: Kiaas Wendling
Taken from their Strike Album
Tabbed by bass50611
Any comments e-mail me at:goldenoldie.benson@sky.com
Very fast  Have fun!

Intro:		 Verse:
G------------------|-------------------------------------------------------|
D---NO BASS FOR----|--------------------6-7--7--7--7--------------------6--|
A---SEVERAL BARS---|------6-7--7--7-77-9---7--7--7-------6-7--7--7--77-9---|
E------------------|---7-9---7--7--7------------------7-9---7--7--7--------|
                .       .       .       .       .       .       .       .
G-------------------------------------------------------------------------|
D-7--7--7--7--------------------------------------------------------------|
A--7--7--7--7---4---------------5---------------4---------------5---------|
E-----------------------4---------------5---------------4---------------5-|

G----------------------------------------------------------------------|
D----------------------6-7--7--7--7-6-7-8-9--9-------------------------|
A---4-5-6-7--7--7--77-9---7--7--7----------9--9---5--5----7--7--7--7---|
E----------7--7--7---------------------------------5--5----7--7--7-----|

Chorus:
G----------6-9-6---------6-9-6---------------------------------------------|
D-------6-9-----9-6---6-9-----9-6-----4-7-4---------4-7-4---------6-9-6----|
A----6-7-------------7-------------4-7-----7-4---4-7-----7-4---6-9-----9-6-|
E-7-9-----------------------------5-------------5-------------7------------|

G------------------------6-9-6---------6-9-6------|
D----4-7-4------------6-9-----9-6---6-9-----9-6---|
A---5--------4-7-4---7-------------7--------------|
E-----------5-------------------------------------|

Bridge 1:                                                 .
G-------------------------------------------------------------|
D---7--7-------------7--7-------------7--7--------------------|
A----7--7-6-5--5--5---7--7-6-5--5--5---7--7-6-5-----6-----7---|
E------------5--5--------------5--5------------5--------------|

Repeat Verse:

Chorus 2:
G----------6-9-6---------6-9-6---------------------------------------------|
D-------6-9-----9-6---6-9-----9-6-----4-7-4---------4-7-4---------6-9-6----|
A----6-7-------------7-------------4-7-----7-4---4-7-----7-4---6-9-----9-6-|
E-7-9-----------------------------5-------------5-------------7------------|

G----------------------6-9-6-----------------------------------------------|
D--4-7-4------------6-9-----9-6----4-7-4-----------------------------------|
A-5--------4-7-4---7--------------5--------4-7-4---7----7----7----7----6-5-|
E---------5-------------------------------5--------------------------------|

Bridge 2:
G---------------------------------------------------------------------|
D----------6--6---9------7--7------------6--6---9------7--7-5-4-------|
A---4--4----6--6---9--9---7---6-5-4--4----6--6---9--9---7---------7---|
E----4--4------------7--------------4--4-----------7------------------|


                         ON 7th Bar
G---------------|-----------------------------|
D---BREAK FOR---|-----------------------------|
A---6 BARS------|-----------------------------|
E---------------|---------------7-------------|

Part Verse:
G----------------------------------------------------------------------|
D----------------------6-7--7--7--7-6-7-8-9--9-------------------------|
A-------6--7--7----77-9---7--7--7----------9--9---5--5----7--7--7--7---|
E---77-9----7--7--7---------------------------------5--5----7--7--7----|

Final Chorus:
G----------6-9-6--------6-9-6---------------------------------------------|
D-------6-9-----9-6--6-9-----9-6-----4-7-4---------4-7-4---------6-9-6----|
A----6-7------------7-------------4-7-----7-4---4-7-----7-4---6-9-----9-6-|
E-7-9----------------------------5-------------5-------------7------------|

G----------------------6-9-6------------------------------------------|
D--4-7-4------------6-9-----9-6----4-7-4------------------------------|
A-5--------4-7-4---7--------------5--------4-7-4---7----7----7----7---|
E---------5-------------------------------5---------------------------|
Suggest correction
comments
print report bad tab
guest
You may want to rate the tab now too:
select rating
Please do not post tabs as comments. Select "correction" instead!