Oops, an error
Loading. Please wait.

Umbrella Bass Tab

version 1
version 1

Whole song

Interactive

21,830 views 15 this week
no commentswrite comment
1 2 3 4 5
accurate
x 4
add to favorites
launch autoscroll
font size
0
reset
guitar tuner
Autoscroll
slow
fast
+/-
esc
set tempo
stop
Help us to improve Ultimate-Guitar.com Take our survey!
×
Difficulty
intermediate
Tuning EADG

Intro during piano

|----------------|----------------|----------------|----------------|
|----------------|----------------|----------------|----------------|
|--6-------------|----------------|--5-------------|----------------|
|----------------|--6-------------|----------------|--3-------------|

Verse

|----------------|----------------|----------------|----------------|
|----5--8--8-7-5-|----------------|----4--7--7-7-4-|----------------|
|-6--------------|----5--8--8-7-5-|-5--------------|--------5-5-4---|
|----------------|-6--------------|----------------|-3---6--------6-|

Chorus

|-------5-8-5----|----------------|-------5-7-5----|----------------| X 2
|---5-8-------8-5|-------5-8-5----|---4-7-------7-4|-------3-5-3----|
|-6--------------|---5-8-------8-5|-5--------------|-----5-------5--|
|----------------|-6--------------|----------------|-3-6-----------6|

|-------5-8-5----|----------------|-------5-7-5----|----------------|
|---5-8-------8-5|-------5-8-5----|---4-7-------7-4|----------3--5--|
|-6--------------|---5-8-------8-5|-5--------------|-------5--------|
|----------------|-6--------------|----------------|-3--6-----------|
Suggest correction
comments
print report bad tab
guest
You may want to rate the tab now too:
select rating
Please do not post tabs as comments. Select "correction" instead!