Oops, an error
Loading. Please wait.

Umbrella Bass

version 2
version 2

Whole song

Interactive

11,025 views 24 this week
3 commentsread comments
1 2 3 4 5
x 14
add to favorites
launch autoscroll
font size
0
reset
guitar tuner
Autoscroll
slow
fast
+/-
esc
set tempo
stop
Author
Difficulty
Tuning
intermediate
E A D G
Enjoy!


Intro

|----------------|----------------|----------------|-------------------|
|----------------|----------------|----------------|-------------------|
|--6-------------|----------------|--4h5-----------|-------------------|
|----------------|-5h6------------|----------------|--2h3--------------|


|----------------|----------------|----------------|----------------| X 2-|
|----------------|----------------|----------------|----------------------|
|-5h6------------|----------------|--4h5-----------|----------------------|
|----------------|-5h6------------|----------------|--2h3-----------------|

Pre-chorus (only after the intro)

|----------------|
|----------------|
|--------5-5-4---|
|-3---6--------6-|


Chorus

|-------5-8-5-----|-----------------|-------5-7-5-----|-----------------| X 2
|---5-8-------8-5-|-------5-8-5-----|---4-7-------7-4-|-------3-5-3-----|
|-6---------------|---5-8-------8-5-|-5---------------|-----5-------5---|
|-----------------|-6---------------|-----------------|-3-6-----------6-|

|-------5-8-5-----|-----------------|-------5-7-5-----|----------------|
|---5-8-------8-5-|-------5-8-5-----|---4-7-------7-4-|----------3--5--|
|-6---------------|---5-8-------8-5-|-5---------------|-------5--------|
|-----------------|-6---------------|-----------------|-3--6-----------|


Verse

|----------------|----------------|----------------|----------------| X 2
|----5--8--8-7-5-|----------------|----4--7--7-7-4-|----------------|
|-6--------------|----5--8--8-7-5-|-5--------------|--------5-5-4---|
|----------------|-6--------------|----------------|-3---6--------6-|


Chorus

|-------5-8-5-----|-----------------|-------5-7-5-----|-----------------| X 2
|---5-8-------8-5-|-------5-8-5-----|---4-7-------7-4-|-------3-5-3-----|
|-6---------------|---5-8-------8-5-|-5---------------|-----5-------5---|
|-----------------|-6---------------|-----------------|-3-6-----------6-|

|-------5-8-5-----|-----------------|-------5-7-5-----|-----------------|
|---5-8-------8-5-|-------5-8-5-----|---4-7-------7-4-|-------3-5-5-3---|
|-6---------------|---5-8-------8-5-|-5---------------|-----5---------6-|
|-----------------|-6---------------|-----------------|-3-6-------------|


Bridge

|-----------------|-----------------|-----------------|-----------------|
|-----------------|-----------------|-----------------|-----------------|
|-6---------------|-6---------------|-----------------|-----------------|
|-----------------|-----------------|-6---------------|-----------------|

|-----------------|-----------------|-----------------|-----------------|
|-----------------|-----------------|-----------------|-----------------|
|-6---------------|-6---------------|-5-------5-------|-5---5---5-3-----|
|-----------------|-----------------|-----------------|-------------6-5-|


Chorus

|-------5-8-5-----|-----------------|-------5-7-5-----|-----------------| X 2
|---5-8-------8-5-|-------5-8-5-----|---4-7-------7-4-|-------3-5-3-----|
|-6---------------|---5-8-------8-5-|-5---------------|-----5-------5---|
|-----------------|-6---------------|-----------------|-3-6-----------6-|

|-------5-8-5-----|-----------------|-------5-7-5-----|-----------------|
|---5-8-------8-5-|-------5-8-5-----|---4-7-------7-4-|-------3-5-5-3---|
|-6---------------|---5-8-------8-5-|-5---------------|-----5---------6-|
|-----------------|-6---------------|-----------------|-3-6-------------|


Break

|----------------|----------------|----------------|-------------------|
|----------------|----------------|----------------|-------------------|
|-5h6------------|----------------|--4h5-----------|-------------------|
|----------------|-5h6------------|----------------|--2h3--------------|


Chorus

|-------5-8-5-----|-----------------|-------5-7-5-----|-----------------| X 4
|---5-8-------8-5-|-------5-8-5-----|---4-7-------7-4-|-------3-5-3-----|
|-6---------------|---5-8-------8-5-|-5---------------|-----5-------5---|
|-----------------|-6---------------|-----------------|-3-6-----------6-|


Outro

|-------------------|
|-------------------|
|-------------------|
|-3---3----3--------|
Suggest correction
comments
print report bad tab
3 comments total.
0 reply
NicoB 10 Sep 20, 2011 12:54 AM

Can't understand the bad rating.
Great tab. Just listen closely, you'll hear, it's quite right!

0 reply
diracster 10 Feb 01, 2012 02:55 AM

This tab is great.
Thanks

+2 reply
Mikrocz 52 Nov 19, 2014 07:14 AM

Nice tab, but I found some mistakes:

Bridge:

|----------------|----------------|----------------|---------------------|
|----------------|----------------|----------------|---------------------|
|--6-------------|-6--------------|----------------|---------------------|
|----------------|----------------|-6--------------|---------------------|

|----------------|----------------|----------------|---------------------|
|----------------|----------------|----------------|---------------------|
|-6--------------|-6--------------|--5-5-555-------|--5-3----------------|
|----------------|----------------|----------------|------6-5------------|


Break:
|----------------|----------------|----------------|-------------------|
|----------------|----------------|----------------|-------------------|
|-6--------------|-6--------------|----------------|----------5-------|
|----------------|---6------------|--6-1-----------|--1-3-5-6----------|


timing isnt right, but notes should be OK :)

guest
You may want to rate the tab now too:
select rating
Wanna post a correction for this tab? Suggest correction