Oops, an error
Loading. Please wait.

Umbrella Bass Tab

version 3
version 3

Whole song

Interactive

945 views 1 this week
no commentswrite comment
1 2 3 4 5
3 more votes to show rating
add to favorites
launch autoscroll
font size
0
reset
guitar tuner
Autoscroll
slow
fast
+/-
esc
set tempo
stop
Help us to improve Ultimate-Guitar.com Take our survey!
×
Author
Difficulty
intermediate
Tab by corrected Sneepy

Intro

|----------------|----------------|----------------|----------------|
|----------------|----------------|----------------|----------------|
|-6--------------|----------------|-5--------------|----------------|
|----------------|-6--------------|----------------|----------------|

|----------------|----------------|----------------|----------------|
|----------------|----------------|----------------|----------------|
|-6--------------|----------------|--5----5----5---|--5--3----------|
|----------------|-6--------------|----------------|--------6--5----|

Chorus

|-------5-8-5----|----------------|-------5-7-5----|----------------| X 2
|---5-8-------8-5|-------5-8-5----|---4-7-------7-4|-------3-5-3----|
|-6--------------|---5-8-------8-5|-5--------------|-----5-------5--|
|----------------|-6--------------|----------------|-3-6-----------6|

|-------5-8-5----|----------------|-------5-7-5----|----------------|
|---5-8-------8-5|-------5-8-5----|---4-7-------7-4|----------3--5--|
|-6--------------|---5-8-------8-5|-5--------------|-------5--------|
|----------------|-6--------------|----------------|-3--6-----------|


Verse

|-----------------|----------------|----------------|----------------| X 2
|----6-----6------|----------------|--------------4-|-5-----5----5---|
|-6-----6----6-3--|-1-----1----1-3-|-5-----5----5---|----5-----5---8-|
|-----------------|----1-----1-----|----5-----5-----|----------------|

Chorus

|-------5-8-5----|----------------|-------5-7-5----|----------------| X 2
|---5-8-------8-5|-------5-8-5----|---4-7-------7-4|-------3-5-3----|
|-6--------------|---5-8-------8-5|-5--------------|-----5-------5--|
|----------------|-6--------------|----------------|-3-6-----------6|

|-------5-8-5----|----------------|-------5-7-5----|---------------------|
|---5-8-------8-5|-------5-8-5----|---4-7-------7-4|----------3--5-5-3---|
|-6--------------|---5-8-------8-5|-5--------------|-------5------------6|
|----------------|-6--------------|----------------|-3--6----------------|

Bridge

|----------------|----------------|----------------|----------------|
|----------------|----------------|----------------|----------------|
|-6--------------|----------------|-5--------------|----------------|
|----------------|-6--------------|----------------|----------------|

|----------------|----------------|----------------|----------------|
|----------------|----------------|----------------|----------------|
|-6--------------|----------------|--5----5----5---|--5--3----------|
|----------------|-6--------------|----------------|--------6--5----|

Chorus

|-------5-8-5----|----------------|-------5-7-5----|----------------| X 2
|---5-8-------8-5|-------5-8-5----|---4-7-------7-4|-------3-5-3----|
|-6--------------|---5-8-------8-5|-5--------------|-----5-------5--|
|----------------|-6--------------|----------------|-3-6-----------6|

|-------5-8-5----|----------------|-------5-7-5----|---------------------|
|---5-8-------8-5|-------5-8-5----|---4-7-------7-4|----------3--5-5-3---|
|-6--------------|---5-8-------8-5|-5--------------|-------5------------6|
|----------------|-6--------------|----------------|-3--6----------------|

Break

|----------------|----------------|----------------|-----------------|
|----------------|----------------|----------------|-----------------|
|---6------------|---1------------|---5------------|-5-------5-------|
|-6--------------|-1--------------|-6--------------|---3-5-6---------|


Chorus

|-------5-8-5----|----------------|-------5-7-5----|----------------| X 4
|---5-8-------8-5|-------5-8-5----|---4-7-------7-4|-------3-5-3----|
|-6--------------|---5-8-------8-5|-5--------------|-----5-------5--|
|----------------|-6--------------|----------------|-3-6-----------6|


Outro


|-------------------|
|-------------------|
|-------------------|
|-3---3----3--------|

Tab by corrected Sneepy
Suggest correction
Give kudos to tab author, rate the tab!
1 2 3 4 5
comments
print report bad tab
guest
You may want to rate the tab now too:
select rating
Wanna post a correction for this tab? Suggest correction