Oops, an error
Loading. Please wait.

Rattle My Chain Bass Tab

497 views 1 this week
1 commentread comment
1 2 3 4 5
please rate
add to favorites
launch autoscroll
font size
0
reset
guitar tuner
Autoscroll
slow
fast
+/-
esc
set tempo
stop
Help us to improve Ultimate-Guitar.com Take our survey!
×
Author
Difficulty
pixiesrule73 1,221
intermediate
Intro:

g|---------------------------------|-----------543---|---------------|
d|-------------------------33333333|---543--------543|---------------|
a|-----------------33333333--------|------543--------|-------3-5~---s|
e|-3333333366666666----------------|-3---------------|-3--36---------|

Verse:

g|-----------543---|
d|---543--------543|
a|------543--------|
e|-3---------------| x 4

Pre-chorus:
                                            (ending 1 )
g|-----------------|---|-----------------|-----------------| 
d|-------------33-3|-x2|-----------------|-33333333--------|
a|---------33-3----|---|---------33-355-5|---------555-----|
e|-33-366-6--------|---|-33-366-6--------|-----------------|
    (ending 2)
g|--------------------|
d|-33333333-----------|
a|---------5--5--5~--s|
e|--------------------|

Chorus:

g|------------------|----------------|
d|------------------|--------33333---|
a|------------------|33333333-----53-|  x 4
e|-33333333s66666666|---------------6|

Post-Chorus:

g|-----------------|-------------|
d|-----------------|-------------|
a|------3-5----4---|-----3-5~---s|  x 2
e|-3--36------6--4-|3--36--------|




Structure:

Intro
Versex2
Instrumental break (play verse riff)
Pre-Chorus
Chorus
Post-Chorus
Solo(verse x 2)
Versex2
Pre-Chorus (ending 2)
Chorus
Post-Chorus
Suggest correction new What's this?
You can suggest a correction to this tab. Community and Mods will review your correction and vote to approve or reject it.
comments
We did not receive enough feedback on this tab! Please rate:
print report bad tab
1 2 3 4 5
1 comment total.
0 reply
harrisabd 20 wrote on January 26 2008, 07:53 pm

MAte this is a great tab sounds exactly like it
love it
and ive been looking every where for a basics tab
ty

guest
You may want to rate the tab now too:
select rating
Please do not post tabs as comments. Select "correction" instead!