Oops, an error
Loading. Please wait.

Barbara Ann bass

version 1
version 1

Whole song

Interactive

15,309 views 21 this week
1 commentread comment
1 2 3 4 5
x 4
add to favorites
×
Save as Personal and add changes to this tab that will be seen only by you. Learn more ›
×
You can save this tab as Personal to edit and correct it or add notes. All changes will be seen only by you. Learn more »
launch autoscroll
font size
0
reset
guitar tuner
edit
Autoscroll
slow
fast
+/-
esc
set tempo
stop
Author
                 /-----------------------------------------------------------------------/
                                     BARBARA ANN - The Beach Boys
               /-----------------------------------------------------------------------/



  1  +  2  +  3  +  4  +  1  +  2  +  3  +  4  +  1  +  2  +  3  +  4  +  1  +  2  +  3  +  4  +   
G|-----------------------|-----------------------|------------------1----|4-----2-----1----------|
D|------------------1----|4-----2-----1----------|------1-----4----------|------------------4----|
A|------1-----4----------|------------------4----|2----------------------|-----------------------|
E|2----------------------|-----------------------|-----------------------|-----------------------|

  1  +  2  +  3  +  4  +  1  +  2  +  3  +  4  +  1  +  2  +  3  +  4  +  1  +  2  +  3  +  4  +   
G|-----------------------|-----------------------|-----------------------|-----------------------|
D|------------------1----|4-----2-----1----------|-----------------------|-----------------------|
A|------1-----4----------|------------------4----|4~----------------4----|2~---------------------|
E|2----------------------|-----------------------|-----------------------|-----------------------|

  1  +  2  +  3  +  4  +  1  +  2  +  3  +  4  +  1  +  2  +  3  +  4  +  1  +  2  +  3  +  4  +   
G|-----------------------|----------------------||-----------------------|----------------------||
D|------------------1----|------------------1---|*-----------------------|----------------------*|
A|------1-----4----------|------1-----4---------|*-----------------------|----------------------*|
E|2----------------------|2---------------------||2----------------------|----------------------||[x2]

  1  +  2  +  3  +  4  +  1  +  2  +  3  +  4  +  1  +  2  +  3  +  4  +  1  +  2  +  3  +  4  +   
G|------------------1----|------------------1----|-----------------------|-----------------------|
D|------1-----4----------|------1-----4----------|------------------1----|------------------1----|
A|2----------------------|2----------------------|------1-----4----------|------1-----4----------|
E|-----------------------|-----------------------|2----------------------|2----------------------|

  1  +  2  +  3  +  4  +  1  +  2  +  3  +  4  +  1  +  2  +  3  +  4  +  1  +  2  +  3  +  4  +   
G|-----------------------|-----------------------|-----------------------|-----------------------|
D|-----------------------|-----------------------|------------------1----|4-----2-----1----------|
A|4~---------------------|2~---------------------|------1-----4----------|------------------4----|
E|-----------------------|-----------------------|2----------------------|-----------------------|

  1  +  2  +  3  +  4  +  1  +  2  +  3  +  4  +  1  +  2  +  3  +  4  +  1  +  2  +  3  +  4  +   
G|-----------------------|-----------------------|-----------------------|-----------------------|
D|-----------------------|-----------------------|-----------------------|-----------------------|
A|-----------------------|-----------------------|-----------------------|-----------------------|
E|2----------------------|-----------------------|-----------------------|-----------------------|
  (Ba ba ba      ba Barbara Ann...   Ba ba ba        ba Barbara Ann...)

  1  +  2  +  3  +  4  +  1  +  2  +  3  +  4  +  1  +  2  +  3  +  4  +  1  +  2  +  3  +  4  +   
G|-----------------------|-----------------------|------------------1----|4-----2-----1----------|
D|------------------1----|4-----2-----1----------|------1-----4----------|------------------4----|
A|------1-----4----------|------------------4----|2----------------------|-----------------------|
E|2----------------------|-----------------------|-----------------------|-----------------------|

  1  +  2  +  3  +  4  +  1  +  2  +  3  +  4  +  1  +  2  +  3  +  4  +  1  +  2  +  3  +  4  +   
G|-----------------------|-----------------------|-----------------------|-----------------------|
D|------------------1----|4-----2-----1----------|-----------------------|-----------------------|
A|------1-----4----------|------------------4----|4~---------------------|2~---------------------|
E|2----------------------|-----------------------|-----------------------|-----------------------|

  1  +  2  +  3  +  4  +  1  +  2  +  3  +  4  +    
G|-----------------------|-----------------------|
D|------------------1----|4-----2-----1----------|
A|------1-----4----------|------------------4----|
E|2----------------------|-----------------------|

((Instrumental break))

  1  +  2  +  3  +  4  +  1  +  2  +  3  +  4  +  1  +  2  +  3  +  4  +  1  +  2  +  3  +  4  +   
G|-----------------------|-----------------------|-----------------------|-----------------------|
D|------------------1----|4-----2-----1----------|-----------------------|-----------------------|
A|------1-----4----------|------------------4----|------------------4----|------------------1----|
E|2----------------------|-----------------------|2-----4-----2----------|2-----4-----2----------|

  1  +  2  +  3  +  4  +  1  +  2  +  3  +  4  +  1  +  2  +  3  +  4  +  1  +  2  +  3  +  4  +   
G|-----------------------|------------------1----|-----------------------|-----------------------|
D|------------------4----|------1-----4----------|------4-----2----------|-----------------------|
A|2-----4-----2----------|2----------------------|------------------4----|------1-----2-----4----|
E|-----------------------|-----------------------|2----------------------|2----------------------|

  1  +  2  +  3  +  4  +  1  +  2  +  3  +  4  +  1  +  2  +  3  +  4  +  1  +  2  +  3  +  4  +   
G|-----------------------|-----------------------|-----------------------|-----------------------|
D|-----------------------|-----------------------|------------------1----|-----------------------|
A|4-----6-----4----------|------------1-----2----|------1-----4----------|4-----2-----1----------|
E|------------------4----|2-----4----------------|2----------------------|-------------------4---|

  1  +  2  +  3  +  4  +  1  +  2  +  3  +  4  +  1  +  2  +  3  +  4  +  1  +  2  +  3  +  4  +   
G|-----------------------|-----------------------|-----------------------|-----------------------|
D|-----------------------|-----------------------|-----------------------|-----------------------|
A|-----------------------|-----------------------|-----------------------|-----------------------|
E|2----------------------|-----------------------|-----------------------|------------------2----|
 (Tried Peggy Sue, tried Betty Lou,  tried Mary Lou,   but I knew she wouldn't do...)

  1  +  2  +  3  +  4  +  1  +  2  +  3  +  4  +  1  +  2  +  3  +  4  +  1  +  2  +  3  +  4  +   
G|------------------1----|------------------1----|-----------------------|-----------------------|
D|------1-----4----------|------1-----4----------|------------------1----|4-----2-----1----------|
A|2----------------------|2----------------------|------1-----4----------|------------------2----|
E|-----------------------|-----------------------|2----------------------|-----------------------|

  1  +  2  +  3  +  4  +  1  +  2  +  3  +  4  +  1  +  2  +  3  +  4  +  1  +  2  +  3  +  4  +   
G|-----------------------|-----------------------|-----------------------|-----------------------|
D|4----------------------|2----------------------|------------------1----|------------------1----|
A|-----------------------|-----------------------|------1-----4----------|------1-----4----------|
E|-----------------------|-----------------------|2----------------------|2----------------------|

  1  +  2  +  3  +  4  +  1  +  2  +  3  +  4  +  1  +  2  +  3  +  4  +  1  +  2  +  3  +  4  +   
G|-----------------------|-----------------------|-----------------------|-----------------------|
D|-----------------------|-----------------------|-----------------------|-----------------------|
A|-----------------------|-----------------------|-----------------------|-----------------------|
E|2----------------------|-----------------------|-----------------------|-----------------------|
  (Ba ba ba      ba Barbara Ann....  Ba ba ba        ba Barbara Ann...)

  1  +  2  +  3  +  4  +  1  +  2  +  3  +  4  +  1  +  2  +  3  +  4  +  1  +  2  +  3  +  4  +   
G|-----------------------|-----------------------|------------------1----|-----------------------|
D|------------------1----|------------------1----|------1-----4----------|------------------4----|
A|------1-----4----------|------1-----4----------|2----------------------|2-----4-----2----------|
E|2----------------------|2----------------------|-----------------------|-----------------------|
 
  1  +  2  +  3  +  4  +  1  +  2  +  3  +  4  +  1  +  2  +  3  +  4  +  1  +  2  +  3  +  4  +   
G|-----------------------|-----------------------|-----------------------|-----------------------|
D|-----------------------|------------------1----|-----------------------|-----------------------|
A|------------------4----|------1-----4----------|4~---------------------|2~---------------------|
E|2-----4-----2----------|2----------------------|-----------------------|-----------------------|

  1  +  2  +  3  +  4  +  1  +  2  +  3  +  4  +  1  +  2  +  3  +  4  +  1  +  2  +  3  +  4  +
G|-----------------------|----------------------||-----------------------|----------------------||
D|------------------1----|------------------1---|*------------------1----|------------------1---*|
A|------1-----4----------|------1-----4---------|*------1-----4----------|------1-----4---------*|
E|2----------------------|2---------------------||2----------------------|2---------------------||[x2]

  1  +  2  +  3  +  4  +  1  +  2  +  3  +  4  +  1  +  2  +  3  +  4  +  1  +  2  +  3  +  4  +   
G|------------------1----|------------------1----|-----------------------|-----------------------|
D|------1-----4----------|------1-----4----------|------------------1----|------------------1----|
A|2----------------------|2----------------------|------1-----4----------|------1-----4----------|
E|-----------------------|-----------------------|2----------------------|2----------------------|
 
 1  +  2  +  3  +  4  +  1  +  2  +  3  +  4  +  1  +  2  +  3  +  4  +    
G|-----------------------|-----------------------|----------------------->
D|-----------------------|-----------------------|------------------1---->
A|4~---------------------|2~---------------------|------1-----4---------->
E|-----------------------|-----------------------|2---------------------->
<<<<<<<<<<<<<<<<<<<<<<<<<<<<<<<<<<<<<<<<<<<<<<<<>>>>>>>>>>>>>>>


Tab by A. Romanski
Suggest correction
Creating personal tab
Creating personal tab
You can edit any tab online and save it as your Personal.

You can edit, replace or remove any tab part or add personal notes – all changes will be seen only by you.

Personal tabs can be accessed anytime from any device, even offline.
Learn more »
comments
print report bad tab
1 comment total.
0 reply
waltkihm 10 May 26, 2015 06:53 PM

How do you control the tempo when you 'listen to this song'?

guest
You may want to rate the tab now too:
select rating
Wanna post a correction for this tab? Suggest correction