Oops, an error
Loading. Please wait.

Caroline No bass

version 1
version 1

Whole song

Interactive

1,633 views 9 this week
no commentswrite comment
1 2 3 4 5
x 3
add to favorites
×
Save as Personal and add changes to this tab that will be seen only by you. Learn more ›
×
You can save this tab as Personal to edit and correct it or add notes. All changes will be seen only by you. Learn more »
launch autoscroll
font size
0
reset
guitar tuner
edit
Autoscroll
slow
fast
+/-
esc
set tempo
stop
Author
Caroline No
The Beach Boys
Written by Tony Asher and Brian Wilson; released as a solo Brian Wilson 
single with "Summer Means New Love" as the B-side, and on the album "Pet 
Sounds".

Intro:
G|------- ------- ------- -------|------- ------- ------- -------|
D|-------------------------------|-------------------------------|
A|-------------------------------|-------------------------------|
E|-------------------------------|-------------------------------|
  (tambourine and some other percussion instrument playing)

Verse:
G|------- ------- ------- -------|------- ------- ------- -------|
D|-------------------------------|-------------------------------|
A|-------------------------------|4-----------4---4--------------|
E|4-----------4---4-----------4--|--------------------6---4---2--|
          Where   did        your long hair   go,


G|------- ------- ------- -------|------- ------- ------- -------|
D|-------------------------------|-------------------------------|
A|-------------------------------|4-----------4---4--------------|
E|4-----------4---4-----------4--|--------------------6---4---2--|
            where is the girl I   used to     know?


G|------- ------- ------- -------|------- ------- ------- -------|
D|-------------------------------|-------------------------------|
A|-------------------------------|----------------4-------4------|
E|4-----------4---4-----------4--|4-----------4------------------|
          How     could       you lose    that    happy       glow?


G|------- ------- ------- -------|------- ------- ------- -------|
D|-------------------------------|-------------------------------|
A|4-----------4---4-------4------|-------------------------------|
E|-------------------------------|2-----------2---2-------2------|
                      Oh, Caroline,   no!

Verse:
G|------- ------- ------- -------|------- ------- ------- -------|
D|-------------------------------|-------------------------------|
A|-------------------------------|4-----------4---4--------------|
E|4-----------4---4-------4------|--------------------6---4---2--|
          Who     took       that look a  -   way?


G|------- ------- ------- -------|------- ------- ------- -------|
D|-------------------------------|-------------------------------|
A|-------------------------------|4-----------4---4--------------|
E|4-----------4---4-----------4--|--------------------6---4---2--|
          I   remember    how you used to     say


G|------- ------- ------- -------|------- ------- ------- -------|
D|-------------------------------|-------------------------------|
A|-------------------------------|----------------4-------4------|
E|4-----------4---4-----------4--|4-----------4------------------|
          You'd   ne- ver     change,     but     that's not  true,


G|------- ------- ------- -------|------- ------- ------- -------|
D|-------------------------------|-------------------------------|
A|4-----------4---4-------4------|-------------------------------|
E|-------------------------------|2-----------2---2-------2------|
                      oh, Caroline,   you.            Break   my

Bridge:
G|------- ------- ------- -------|------- ------- ------- -------|
D|-------------------------------|-------------------------------|
A|6-----------6------------------|4-----------4---4-------4------|
E|----------------4-------4------|-------------------------------|
  heart       I       want    to  go  and cry,            It's so


G|------- ------- ------- -------|------- ------- ------- -------|
D|-------------------------------|-------------------------------|
A|3-----------3------------------|-------------------------------|
E|----------------2-------2------|6-----------6---6-------6------|
  sad         to  watch       a   sweet   die.        Oh, Caroline,
                                      thing

G|------- ------- ------- -------|
D|-------------------------------|
A|-------------------------------|
E|5-----------5---5-------5------|
      why?

Verse:
G|------- ------- ------- -------|------- ------- ------- -------|
D|-------------------------------|-------------------------------|
A|-------------------------------|4-----------4---4--------------|
E|4-----------4---4-----------4--|--------------------6---4---2--|
          Could I e- ver find in  you a   -   gain


G|------- ------- ------- -------|------- ------- ------- -------|
D|-------------------------------|-------------------------------|
A|-------------------------------|4-----------4---4--------------|
E|4-----------4---4-----------4--|--------------------6---4---2--|
          things  made me love you so much    then?
              that

G|------- ------- ------- -------|------- ------- ------- -------|
D|-------------------------------|-------------------------------|
A|-------------------------------|----------------4-------4------|
E|4-----------4---4-----------4--|4-----------4------------------|
          Could we ever bring 'em back    once    they have   gone?


G|------- ------- ------- -------|------- ------- ------- -------|
D|-------------------------------|-------------------------------|
A|4-----------4---4-------4------|4-----------4---4-------4------|
E|-------------------------------|-------------------------------|
                                                      Oh, Caroline,


G|------- ------- ------- -------|
D|-------------------------------|
A|-------------------------------|
E|2-----------2---2-------2------|
      no!

Outro:
G|------- ------- ------- -------|------- ------- ------- -------|
D|-------------------------------|-------------------------------|
A|-------------------------------|4-----------4---4--------------|
E|4-----------4---4-----------4--|--------------------6---4---2--|



G|------- ------- ------- -------|------- ------- ------- -------|
D|-------------------------------|-------------------------------|
A|-------------------------------|4-----------4---4--------------|
E|4-----------4---4-----------4--|--------------------6---4---2--|



G|------- ------- ------- -------|------- ------- ------- -------|
D|-------------------------------|-------------------------------|
A|-------------------------------|----------------4-------4------|
E|4-----------4---4-----------4--|4-----------4------------------|



G|------- ------- ------- -------|------- ------- ------- -------|
D|-------------------------------|-------------------------------|
A|4-----------4---4-------4------|-------------------------------|
E|-------------------------------|2-----------2---2-------2------|



G|------- ------- ------- -------|------- ------- ------- -------|
D|-------------------------------|-------------------------------|
A|-------------------------------|4-----------4---4--------------|
E|4-----------4---4-----------4--|--------------------6---4---2--|



G|------- ------- ------- -------|------- ------- ------- -------|
D|-------------------------------|-------------------------------|
A|-------------------------------|4-----------4---4--------------|
E|4-----------4---4-----------4--|--------------------6---4---2--|

fade out...

Please e-mail me for any corrections, or write a comment.

            
            
Suggest correction
Creating personal tab
Creating personal tab
You can edit any tab online and save it as your Personal.

You can edit, replace or remove any tab part or add personal notes – all changes will be seen only by you.

Personal tabs can be accessed anytime from any device, even offline.
Learn more »
Give kudos to tab author, rate the tab!
1 2 3 4 5
comments
print report bad tab
guest
You may want to rate the tab now too:
select rating
Wanna post a correction for this tab? Suggest correction