Oops, an error
Loading. Please wait.
We have an official Dont Worry Baby tab made by UG professional guitarists. Check out the tab »
×
7,882 views 6 this week
no commentswrite comment
1 2 3 4 5
2 more votes to show rating
add to favorites
×
Save as Personal and add changes to this tab that will be seen only by you. Learn more ›
×
You can save this tab as Personal to edit and correct it or add notes. All changes will be seen only by you. Learn more »
launch autoscroll
font size
0
reset
guitar tuner
edit
Autoscroll
slow
fast
+/-
esc
set tempo
stop
############-Don't Worry Baby-##############
The Beach boys 
Written by Brian Wilson/Roger Christian 
Tabbed by Gerald

To all you Beach Boy fans like me, enjoy this song coz it is without a doubt
one of Their greatest with great harmony.

Intro                                                

G|-------------------------|-------------------------|
D|-------------------------|-------------------------|
A|-----2-----2-0-0-4-2-2---|-----2-----2-0-0-4-2-2---|
E|-0-0---0-0-------------2-|-0-0---0-0-------------2-|

Verse

G|-------------------------|-------------------------|
D|-------------------------|-------------------------|
A|-----2-----2-0-0-4-2-2---|-----2-----2-0-0-4-2-2---|
E|-0-0---0-0-------------2-|-0-0---0-0-------------4-|

Pre Chorus

G|----------------------|
D|----------------------|
A|------2-2-------4-4---|
E|-2-2-2---234-4-4----4-|


Chorus

G|-------------------------|-------------------------------|
D|-------------------------|-------------------------------|
A|-----4-----4-2-2-6-4-4---|-----4-----4-2-2-6-4-4-0-1-2---|
E|-2-2---2-2-------------4-|-2-2---2-2-------------------2-|

Verse

Pre Chorus

chorus

Intro

Verse

Pre Chorus

chorus

chorus till fade out

Thats pretty much it, its simple but brilliant, no matter how simple a song was Brian Wilson 
always wrote a terrific bassline. It's one of my favourites songs of all time and im only 19.

if you hav any comments/questions or if u just wanna talk about beach boys or other music
here is my email address Geraldo51_2@hotmail.com

Have Fun!.
Suggest correction
Creating personal tab
Creating personal tab
You can edit any tab online and save it as your Personal.

You can edit, replace or remove any tab part or add personal notes – all changes will be seen only by you.

Personal tabs can be accessed anytime from any device, even offline.
Learn more »
Give kudos to tab author, rate the tab!
1 2 3 4 5
comments
print report bad tab
guest
Wanna post a correction for this tab? Suggest correction