Oops, an error
Loading. Please wait.

Girl Dont Tell Me bass

version 1
version 1

Whole song

Interactive

535 views 1 this week
no commentswrite comment
1 2 3 4 5
2 more votes to show rating
add to favorites
×
Save as Personal and add changes to this tab that will be seen only by you. Learn more ›
×
You can save this tab as Personal to edit and correct it or add notes. All changes will be seen only by you. Learn more »
launch autoscroll
font size
0
reset
guitar tuner
edit
Autoscroll
slow
fast
+/-
esc
set tempo
stop
Author
Girl Don't Tell Me
The Beach Boys
Written by Brian Wilson; released as a B-side to "Barbara Ann", and on the 
album "Summer Days (And Summer Nights!!)".

Verse:
G|------- ------- ------- -------|------- ------- ------- -------|
D|-------------------------------|-------------------------------|
A|----------------2-------4---0--|3-----------3---5-------7---5--|
E|5-------0---5------------------|--------3----------------------|
  Hi,     little  girl,   it's me,   don't you know   who I


G|------- ------- ------- -------|------- ------- ------- -------|
D|-------------------------------|-------------------------------|
A|----------------2-------4---2--|----------------2-------4---2--|
E|5-------0---5------------------|5-------0---5------------------|
          am?                                                 I


G|------- ------- ------- -------|------- ------- ------- -------|
D|-------------------------------|-------------------------------|
A|----------------2-------4---0--|3-----------3---5-------7---5--|
E|5-------0---5------------------|--------3----------------------|
  met you last    summer, when I  came up to  stay    with my


G|------- ------- ------- -------|------- ------- ------- -------|
D|-------------------------------|-------------------------------|
A|----------------2-------4---2--|----------------2---4---2---0--|
E|5-------0---5------------------|5-------0---5------------------|
      gran.                                               I'm the


G|------- ------- ------- -------|------- ------- ------- -------|
D|-------------------------------|-------------------------------|
A|-------------------------------|-------------------------------|
E|0-------0---4---5-------7---5--|0-----------4---5-------7---5--|
  gu  -   u   -   uy      who left    you    with tears in his eyes,


G|------- ------- ------- -------|------- ------- ------- -------|
D|-------------------------------|-------------------------------|
A|----------------2--------------|----------------2---0----------|
E|0-------2---0-----------2---4--|0-------2---0-----------2---0--|
                                                      You didn't


G|------- ------- ------- -------|------- ------- ------- -------|
D|-------------------------------|-------------------------------|
A|------------4---4---4---2---4--|------------4---4---4---2---0--|
E|2------------------------------|2------------------------------|
  answer  my      letter, so  I   figured it  was     just a  lie.


G|------- ------- ------- -------|------- ------- ------- -------|
D|-------------------------------|-------------------------------|
A|2-------2-------2-------2---4--|5-------5-------4---2---0---2--|
E|--------------------2----------|-------------------------------|
                                                              Your

Verse:
G|------- ------- ------- -------|------- ------- ------- -------|
D|-------------------------------|-------------------------------|
A|----------------2-------4---0--|3-----------3---5-------7---5--|
E|5-------0---5------------------|--------3----------------------|
  hair's  getting longer, your shorts, mmm,   they sure fit


G|------- ------- ------- -------|------- ------- ------- -------|
D|-------------------------------|-------------------------------|
A|----------------2-------4---2--|----------------2-------4---2--|
E|5-------0---5------------------|5-------0---5------------------|
  you     fine,                                               I'll


G|------- ------- ------- -------|------- ------- ------- -------|
D|-------------------------------|-------------------------------|
A|----------------2-------4---0--|3---3-------3---5---5---7---5--|
E|5-------0---5------------------|--------3----------------------|
  bet you went    out every   night   during  old             school


G|------- ------- ------- -------|------- ------- ------- -------|
D|-------------------------------|-------------------------------|
A|----------------2-------4---2--|----------------2---4---2---0--|
E|5-------0---5------------------|5-------0---5------------------|
      time.                                           But this


G|------- ------- ------- -------|------- ------- ------- -------|
D|-------------------------------|-------------------------------|
A|-------------------------------|-------------------------------|
E|0-------0---4---5---5---7---5--|0-------0---4---5-------7---5--|
  ti  -   i   -   ime     I'm not     gon  -  na  count on    you,


G|------- ------- ------- -------|------- ------- ------- -------|
D|-------------------------------|-------------------------------|
A|----------------2--------------|----------------2---0----------|
E|0-------2---0-----------2---4--|0-------2---0-----------2---0--|
                                                              I'll


G|------- ------- ------- -------|------- ------- ------- -------|
D|-------------------------------|-------------------------------|
A|------------4---4---4---4---4--|------------4---4---4---2---0--|
E|2-------2----------------------|2------------------------------|
  see you this    summer, and forget  you when I  go back to  school.


G|------- ------- ------- -------|------- ------- ------- -------|
D|-------------------------------|-------------------------------|
A|2-------2---2---2-------2---4--|5-------5---5-------7---5---4--|
E|--------------------2----------|-------------------------------|


Refrain:
G|------- ------- ------- -------|------- ------- ------- -------|
D|-------------------------------|-------------------------------|
A|2-----------4---4---4---2---4--|------------4---4---4---2------|
E|-------------------------------|2---------------------------0--|
  Girl,   don't   tell me you'll write,


G|------- ------- ------- -------|------- ------- ------- -------|
D|-------------------------------|-------------------------------|
A|2-----------4---4---4---2---4--|5------------------------------|
E|-------------------------------|------------2-------2----------|
  girl,   don't   tell me you'll write,


G|------- ------- ------- -------|------- ------- ------- -------|
D|-------------------------------|-------------------------------|
A|2-----------4---4---4---2---4--|-------------------------------|
E|-------------------------------|2-----------0-----------2---4--|
  Girl,   don't   tell me you'll write me a - gain    this


G|------- ------- ------- -------|------- ------- ------- -------|
D|-------------------------------|-------------------------------|
A|----------------2-------4---2--|----------------2-------4---2--|
E|5-------0---5------------------|5-------0---5------------------|
      time.


G|------- ------- ------- -------|------- ------- ------- -------|
D|-------------------------------|-------------------------------|
A|-------------------------------|------------------------5---4--|
E|5------------------------------|-------------------------------|


Verse:
G|------- ------- ------- -------|------- ------- ------- -------|
D|-------------------------------|-------------------------------|
A|----------------2-------4---0--|3-----------3---5-------7---5--|
E|5-------0---5------------------|--------3----------------------|
  Hi,     little  girl,   it's me,   don't you know   who I


G|------- ------- ------- -------|------- ------- ------- -------|
D|-------------------------------|-------------------------------|
A|----------------2-------4---2--|----------------2-------4---2--|
E|5-------0---5------------------|5-------0---5------------------|
          am?                                                 I


G|------- ------- ------- -------|------- ------- ------- -------|
D|-------------------------------|-------------------------------|
A|----------------2-------4---0--|3-----------3---5-------7---5--|
E|5-------0---5------------------|--------3----------------------|
  met you last    summer, when I  came up to  stay    with my


G|------- ------- ------- -------|------- ------- ------- -------|
D|-------------------------------|-------------------------------|
A|----------------2-------4---2--|----------------2---4---2---0--|
E|5-------0---5------------------|5-------0---5------------------|
      gran.                                          Said I'm the


G|------- ------- ------- -------|------- ------- ------- -------|
D|-------------------------------|-------------------------------|
A|-------------------------------|-------------------------------|
E|0-----------4---5-------7---5--|0-------0---4---5-------7---5--|
  gu  -   u   -   uy      who left    you    with tears in his eyes,


G|------- ------- ------- -------|------- ------- ------- -------|
D|-------------------------------|-------------------------------|
A|----------------2--------------|----------------2---0----------|
E|0-------2---0-----------2---4--|0-------2---0-----------2---0--|
                                                      You didn't


G|------- ------- ------- -------|------- ------- ------- -------|
D|-------------------------------|-------------------------------|
A|------------4-------4---2---4--|------------4---4---4---2---0--|
E|2-------2----------------------|2-------2----------------------|
  answer  my      letter, so  I   figured it  was     just a  lie.


G|------- ------- ------- -------|------- ------- ------- -------|
D|-------------------------------|-------------------------------|
A|2-----------2-----------2---4--|5-----------5-------7---5---4--|
E|--------------------2----------|-------------------------------|


Refrain:
G|------- ------- ------- -------|------- ------- ------- -------|
D|-------------------------------|-------------------------------|
A|2-----------4-------4---2---4--|------------4-------4---4------|
E|-------------------------------|2------------------------------|
  Girl,   don't   tell me you'll write,


G|------- ------- ------- -------|------- ------- ------- -------|
D|-------------------------------|-------------------------------|
A|2-----------4-------4---2---4--|5------------------------------|
E|-------------------------------|------------2-------2-------2--|
  girl,   don't   tell me you'll write,


G|------- ------- ------- -------|------- ------- ------- -------|
D|-------------------------------|-------------------------------|
A|2-----------4-------4---2---4--|-------------------------------|
E|-------------------------------|2-----------0---------------4--|
  Girl,   don't   tell me you'll write me a - gain    this


G|------- ------- ------- -------|------- ------- ------- -------|
D|-------------------------------|-------------------------------|
A|----------------2-------4---2--|----------------2-------4---2--|
E|5-------0---5------------------|5-------0---5------------------|
      time.

Outro:
G|------- ------- ------- -------|------- ------- ------- -------|
D|-------------------------------|-------------------------------|
A|2-----------4-------4-------4--|-------------------------------|
E|-------------------------------|2-----------0-------0-------4--|
  Girl,   don't   tell me you'll write me a - gain    this


G|------- ------- ------- -------|------- ------- ------- -------|
D|-------------------------------|-------------------------------|
A|----------------2-------4---2--|-------------------------------|
E|5-------0---5------------------|5------------------------------|
      time.

Please e-mail me for any corrections, or write a comment.
Suggest correction
Creating personal tab
Creating personal tab
You can edit any tab online and save it as your Personal.

You can edit, replace or remove any tab part or add personal notes – all changes will be seen only by you.

Personal tabs can be accessed anytime from any device, even offline.
Learn more »
Give kudos to tab author, rate the tab!
1 2 3 4 5
comments
print report bad tab
guest
You may want to rate the tab now too:
select rating
Wanna post a correction for this tab? Suggest correction