Oops, an error
Loading. Please wait.

God Only Knows Chords

version 1
version 1

Interactive

495,270 views 1,377 this week
9 commentsread comments
1 2 3 4 5
accurate
x 20
add to favorites
launch autoscroll
font size
0
reset
transpose
0
reset
simplify chords
display chords
guitar tuner
Tab Pro tools
  • play this tab
  • loop segment
  • change instrument
  • show fretboard
  • metronome
×
Best way to learn
"God Only Knows"
Autoscroll
slow
fast
+/-
esc
set tempo
stop
[Intro]

A            E            A            E
A           E/G#         F#m7   

(winds arr. for gtr)
e|------------------|
B|-2-----2-4--5-----|
G|-2-----2-4--5-----|
D|------------------|
A|------------------|
E|------------------|

(bass)   
G|------------------|
D|------------------|
A|------------------|
E|-0-----0-2-3------|


[Verse]

D/A       Bm6
I may not always love you
F#m F#m7              F#m6/A
But long as there are stars above you
E/B       Cdim
You never need to doubt it
E/B             A#o
I'll make you so sure about it
A              E/G#         F#m7        E 
God only knows what I'd be without you


(bass doubled w/piano)    
G|-----------------|
D|-----------------|
A|-----------------|
E|-0-----02-3------|


[Verse]

D/A       Bm6
If you should ever leave me
F#m F#m7              F#m6/A
Though life would still go on believe me
E/B       Cdim
The world could show nothing to me
E/B             A#o
So what good would living do me
A              E/G#         F#m7        E 
God only knows what I'd be without you


[Bridge]

(winds/keyboard arr. for gtr)
e|-----9-----5---9-|-7-----6---------|
B|-5--10-----5--10-|-8-----5-8-6-5-3-|
G|-6---------------|---------9-7-6-4-|   x2
D|-----------------|-----------------|
A|-----------------|-----------------|
E|-----------------|-----------------|

(bass)
G|-----------------|-------------0-2-|
D|-2---2-----4---2-|-5-------0-2-----|   x2
A|-----------------|-------3---------|
E|-----------------|-----------------|

G/D          Em6         Bm/F#  Bm7   E7/D
A/E         Fdim          A/E         D#o

 
[Interlude]

 D             A/C#         Bm
God only knows what I'd be without you


[Verse]

D/A       Bm6
If you should ever leave me
F#m F#m7              F#m6/A
Though life would still go on believe me
E/B       Cdim
The world could show nothing to me
E/B             A#o
So what good would living do me
A              E/G#         F#m7        E 
God only knows what I'd be without you


[Outro]

A              E/G#         F#m7       E/G#
God only knows what I'd be without you  
     
(repeat to fade)
comments
print report bad tab
9 comments total. Showing first comments.
0 reply
pollys wrote on December 19 2007, 10:37 am

Great man really awesome tab!!!

0 reply
GuitarJester91 wrote on September 3 2008, 06:45 pm

the chords aren't in the right order...

0 reply
butsch_ramone wrote on June 14 2013, 09:39 am

Great tabs!
But I think that A#m7-5 is actually C#m.

I want to post or [tab]
guest
You may want to rate the tab now too:
select rating
Please do not post tabs as comments. Select "correction" instead!