Oops, an error
Loading. Please wait.

In My Room Bass Tab

version 1
version 1

Whole song

Interactive

1,292 views 3 this week
no commentswrite comment
1 2 3 4 5
please rate
add to favorites
launch autoscroll
font size
0
reset
guitar tuner
Tab Pro tools
  • play this tab
  • loop segment
  • change instrument
  • show fretboard
  • metronome
×
Best way to learn
"In My Room"
Autoscroll
slow
fast
+/-
esc
set tempo
stop
Contributor
In My Room
The Beach Boys
Written by Gary Usher and Brian Wilson; released as the B-side to "Be True To 
Your School" and on the album "Surfer Girl".

6/8 time

Intro:
G|4---------- --------4--|----------- -----------|6---------- --------6--|
D|-----------------------|6-------------------6--|-----------------------|
A|-----------------------|-----------------------|-----------------------|
E|-----------------------|-----------------------|-----------------------|



G|--------------------------------------------|
D|4-------------------------------------------|
A|-----------------------------------------1--|
E|---------------------------------2---4------|


Verse:
G|----------- -----------|----------- -----------|----------- -----------|
D|-----------------------|-----------------------|-----------------------|
A|2----------------------|-----------------------|2----------------------|
E|-----------------------|2----------------------|-----------------------|
  There's     a           world       where       I           can


G|----------- -----------|----------- -----------|----------- -----------|
D|-----------------------|-----------------------|------------4----------|
A|-----------------------|2-------------------2--|0----------------------|
E|2----------------------|-----------------------|-----------------------|
  go,         and         tell        my          se    -     crets


G|----------- -----------|----------- -----------|----------- -----------|
D|-----------------------|-----------------------|-----------------------|
A|2-------------------2--|-----------------------|4----------------------|
E|-----------------------|4-------------------4--|-----------------------|
  too,                            In      my      room,


G|----------- -----------|----------- -----------|----------- -----------|
D|-----------------------|-----------------------|-----------------------|
A|-----------------------|-----------------------|-----------------------|
E|5----------------------|2----------------------|2-------------------2/-|
                                                          in      my


G|----------- -----------|----------- -----------|----------- -----------|
D|-----------------------|-----------------------|-----------------------|
A|-----------------------|-----------------------|2----------------------|
E|7----------------------|5-----------2----------|-----------------------|
  room.
                         (in          my          room)

G|----------- -----------|
D|-----------------------|
A|2----------------------|
E|------------2----------|


Verse:
G|----------- -----------|----------- -----------|----------- -----------|
D|-----------------------|-----------------------|-----------------------|
A|2----------------------|-----------------------|2----------------------|
E|-----------------------|2-----------2----------|-----------------------|
  In          this        world       I           lock        out


G|----------- -----------|----------- -----------|----------- -----------|
D|-----------------------|-----------------------|------------4----------|
A|-----------------------|2----------------------|0----------------------|
E|2-----------2----------|-----------------------|-----------------------|
  all         my          wor    -    ries        and         my


G|----------- -----------|----------- -----------|----------- -----------|
D|-----------------------|-----------------------|-----------------------|
A|2----------------------|-----------------------|4----------------------|
E|-----------------------|4----------------------|-----------------------|
  fears,                          In      my      room,


G|----------- -----------|----------- -----------|----------- -----------|
D|-----------------------|-----------------------|-----------------------|
A|-----------------------|-----------------------|-----------------------|
E|5----------------------|2----------------------|2-------------------2/-|
                                                          in      my


G|----------- -----------|----------- -----------|----------- -----------|
D|-----------------------|-----------------------|-----------------------|
A|-----------------------|--------------------0--|2----------------------|
E|7----------------------|5-----------2----------|-----------------------|
  room.
                         (in          my          room)

G|----------- -----------|
D|--------------------2--|
A|2-----------2----------|
E|-----------------------|


Bridge:
G|----------- -----------|----------- -----------|----------- -----------|
D|-----------------------|-----------------------|-----------------------|
A|-----------------------|-----------------------|-----------------------|
E|4----------------------|4----------------------|2----------------------|
  Do          my          drea   -    ming        and         my


G|----------- -----------|----------- -----------|----------- -----------|
D|--------------------2--|-----------------------|-----------------------|
A|-----------------------|-----------------------|-----------------------|
E|2----------------------|4-----------2----------|4-----------2----------|
  sche   -    ming,       lie         a     -     wake        and


G|----------- -----------|----------- -----------|----------- -----------|
D|-----------------------|-----------------------|-----------------------|
A|2----------------------|2----------------------|-----------------------|
E|-----------------------|-----------------------|4----------------------|
  pray,                                           Do          my


G|----------- -----------|----------- -----------|----------- -----------|
D|-----------------------|-----------------------|----------------4------|
A|-----------------------|-----------------------|4-------------------6--|
E|4----------------------|2----------------------|-----------------------|
  cry    -    ing         and         my          sigh    -   ing,


G|----------- -----------|----------- -----------|----------- -----------|
D|-----------------------|-----------------------|--------------------2--|
A|4-----------4----------|4----------------------|4----------------------|
E|-----------------------|-----------------------|-----------------------|
  laugh      at          yes   -     ter    -    day.


G|----------- -----------|
D|4----------------------|
A|--------------------1--|
E|------------2---4------|


Verse:
G|----------- -----------|----------- -----------|----------- -----------|
D|-----------------------|-----------------------|-----------------------|
A|2----------------------|-----------------------|2----------------------|
E|-----------------------|2----------------------|-----------------------|
  Now         it's        dark,       and         I'm         a-


G|----------- -----------|----------- -----------|----------- -----------|
D|-----------------------|-----------------------|-----------------------|
A|-----------------------|2----------------------|0----------------------|
E|2----------------------|-----------------------|------------2----------|
  lone,       but         I           won't       be          a-


G|----------- -----------|----------- -----------|----------- -----------|
D|-----------------------|-----------------------|-----------------------|
A|2----------------------|--------------------2--|4----------------------|
E|-----------------------|4----------------------|-----------------------|
  fraid                           In      my      room,


G|----------- -----------|----------- -----------|----------- -----------|
D|-----------------------|-----------------------|-----------------------|
A|-----------------------|-----------------------|-----------------------|
E|5----------------------|2-------------------2--|2---------------2---4/-|
                                                          in      my


G|----------- -----------|----------- -----------|----------- -----------|
D|-----------------------|-----------------------|-----------------------|
A|-----------------------|-----------------------|2----------------------|
E|7----------------------|5-----------2----------|-----------------------|
  room,
                         (in          my          room,

G|----------- -----------|
D|-----------------------|
A|0----------------------|
E|------------2----------|

  in          my
Outro:
G|----------- -----------|----------- -----------|----------- -----------|
D|--------------------1--|-----------------------|--------------------1--|
A|2----------------------|0----------------------|2----------------------|
E|-----------------------|------------2----------|-----------------------|
  Room,
  room,                   in          my          room,

G|----------- -----------|----------- -----------|----------- -----------|
D|-----------------------|--------------------1--|-----------------------|
A|0----------------------|2----------------------|0----------------------|
E|------------2----------|-----------------------|------------2----------|
                  My      room,
  in          my          room,                   in          my...
Fade out...

Please e-mail me for any corrections, or write a comment.
comments
We did not receive enough feedback on this tab! Please rate:
print report bad tab
1 2 3 4 5
I want to post or [tab]
guest
You may want to rate the tab now too:
select rating
Please do not post tabs as comments. Select "correction" instead!