Oops, an error
Loading. Please wait.

Keepin The Summer Alive Bass Tab

10 views 1 this week
no commentswrite comment
1 2 3 4 5
3 more votes to show rating
add to favorites
launch autoscroll
font size
0
reset
guitar tuner
Autoscroll
slow
fast
+/-
esc
set tempo
stop
Help us to improve Ultimate-Guitar.com Take our survey!
×
Author
Difficulty
intermediate
Artist : The Beach Boys
Album : Keepin' The Summer Alive
Song : Keepin' The Summer Alive

I decided to fully write the tab to get all the variations.


[Verse] 0:16
G|----------------|----------------|----------------|----------------|
D|----------------|--------3-4-5---|----------------|--------5-3-2---|
A|5-5-2---3-3-3---|----------------|5-5-2---3-3-3---|----------------|
E|----------------|3---3-----------|----------------|3---3-----------|
  1 + 2 + 3 + 4 +  1 + 2 + 3 + 4 +  1 + 2 + 3 + 4 +  1 + 2 + 3 + 4 +  

G|----------------|----------------|----------------|----------------|
D|----------------|----------------|----------------|----------------|
A|5-5-2---3-3-3---|----------------|5-5-2---3-3-3---|----------------|
E|----------------|3---3---1-2-3---|----------------|3---3---1-2-3---|
  1 + 2 + 3 + 4 +  1 + 2 + 3 + 4 +  1 + 2 + 3 + 4 +  1 + 2 + 3 + 4 +  


[Chorus]
G|----------------|----------------|----------------|----------------|
D|----------------|x-3-4---5-3-5---|----------------|----------------|
A|----3-5---------|----------------|----3-5---------|----------------|
E|5-5-------------|----------------|5-5-------------|x-1-2---3-1-3---|
  1 + 2 + 3 + 4 +  1 + 2 + 3 + 4 +  1 + 2 + 3 + 4 +  1 + 2 + 3 + 4 +  

G|----------------|----------------|----------------|----------------|
D|----------------|0-3-4---5-3-5---|----------------|----------------|
A|----3-5---------|----------------|----3-5---------|----------------|
E|5-5-------------|----------------|5-5-------------|x-1-2---3-1-3---|
  1 + 2 + 3 + 4 +  1 + 2 + 3 + 4 +  1 + 2 + 3 + 4 +  1 + 2 + 3 + 4 +  


[Verse]
G|----------------|----------------|----------------|----------------|
D|----------------|--------3-4-5---|----------------|----------5-3-2-|
A|5-5-2---3-3-3---|----------------|5-5-------------|----------------|
E|----------------|3---3-----------|----7---8-8-\---|3---3---3-------|
  1 + 2 + 3 + 4 +  1 + 2 + 3 + 4 +  1 + 2 + 3 + 4 +  1 + 2 + 3 + 4 +

G|----------------|----------------|----------------|----------------|
D|----------------|----------------|----------------|----------------|
A|5-5-2---3-3-3---|----------------|5-5-2---3-3-3---|----------------|
E|----------------|3---3---1-2-3---|----------------|3---3---1-2-3---|
  1 + 2 + 3 + 4 +  1 + 2 + 3 + 4 +  1 + 2 + 3 + 4 +  1 + 2 + 3 + 4 +    


[Chorus]
G|----------------|----------------|----------------|----------------|
D|----------------|x-3-4---5-3-5---|----------------|----------------|
A|----3-5---------|----------------|----3-5---------|----------------|
E|5-5-------------|----------------|5-5-------------|x-1-2---3-1-3---|
  1 + 2 + 3 + 4 +  1 + 2 + 3 + 4 +  1 + 2 + 3 + 4 +  1 + 2 + 3 + 4 +  

G|----------------|----------------|----------------|----------------|
D|----------------|0-3-4---5-3-5---|----------------|----------------|
A|----3-5---------|----------------|----3-5---------|----------------|
E|5-5-------------|----------------|5-5-------------|x-1-2---3-------|
  1 + 2 + 3 + 4 +  1 + 2 + 3 + 4 +  1 + 2 + 3 + 4 +  1 + 2 + 3 + 4 +   


[Interlude]
G|----------------|----------------|----------------|----------------|
D|----------------|----------------|----------------|----------------|
A|5---------------|5-------2-------|----------------|--------2-------|
E|----------------|----------------|--------0-------|5---------------|
  1 + 2 + 3 + 4 +  1 + 2 + 3 + 4 +  1 + 2 + 3 + 4 +  1 + 2 + 3 + 4 +  

G|----------------|----------------|----------------|----------------|
D|----------------|----------------|--------2-------|----------------|
A|3---------------|5-------2-------|----------------|--------2-------|
E|----------------|----------------|----------------|5---------------|
  1 + 2 + 3 + 4 +  1 + 2 + 3 + 4 +  1 + 2 + 3 + 4 +  1 + 2 + 3 + 4 +  

G|----------------|----------------|
D|----------------|----------------|
A|3---------------|----------------|    wait the "DHA DHA DHA"s...
E|----------------|----------------|
  1 + 2 + 3 + 4 +  1 + 2 + 3 + 4 + 


[Solo] 1:58
G|----------------|----------------|----------------|----------------|
D|----------------|--------3-4-5---|----------------|--------5-3-2---|
A|5-5-2---3-3-3---|----------------|5-5-2---3-3-3---|----------------| x2
E|----------------|3---3-----------|----------------|3---3-----------|
  1 + 2 + 3 + 4 +  1 + 2 + 3 + 4 +  1 + 2 + 3 + 4 +  1 + 2 + 3 + 4 + 
 

[Verse]
G|----------------|----------------|----------------|----------------|
D|----------------|--------3-4-5---|----------------|----------------|
A|5-5-2---3-3-3---|----------------|5-5-2-2-3-3-3---|----------------|
E|----------------|3---3-----------|----------------|3---3---3-1-0---|
  1 + 2 + 3 + 4 +  1 + 2 + 3 + 4 +  1 + 2 + 3 + 4 +  1 + 2 + 3 + 4 +  

G|----------------|----------------|----------------|----------------|
D|----------------|--------3-4-5---|----------------|----------------|
A|5-5-2---3-3-2---|----------------|5-5-2-2-3-3-3---|----------------|
E|--------------5-|3---3-----------|----------------|3---3---1-2-3---|
  1 + 2 + 3 + 4 +  1 + 2 + 3 + 4 +  1 + 2 + 3 + 4 +  1 + 2 + 3 + 4 +  


[End Chorus]
G|----------------|----------------|----------------|----------------|
D|----------------|----------------|----------------|----------------|
A|----3-5---------|----------------|----3-5---------|----------------|
E|5-5-------------|x-1-2---3-1-3---|5-5-------------|x-1-2---3-1-3---|
  1 + 2 + 3 + 4 +  1 + 2 + 3 + 4 +  1 + 2 + 3 + 4 +  1 + 2 + 3 + 4 +  

G|----------------|----------------|----------------|----------------|
D|----------------|0---------------|----------------|----------------|
A|----3-5---------|----------------|----3-5---------|----------------|
E|5-5-------------|--1-2---3-1-3---|5-5-------------|x-1-2---3-1-3---|
  1 + 2 + 3 + 4 +  1 + 2 + 3 + 4 +  1 + 2 + 3 + 4 +  1 + 2 + 3 + 4 + 

G|----------------|----------------|----------------|----------------|
D|----------------|--------5-3-2---|----------------|--------5-3-2---|
A|5-5-2---3-3-3---|----------------|5-5-2-2-3-3-2---|----------------|
E|----------------|3---3-----------|--------------5-|3---3-----------|
  1 + 2 + 3 + 4 +  1 + 2 + 3 + 4 +  1 + 2 + 3 + 4 +  1 + 2 + 3 + 4 +  

G|----------------|----------------|----------------|----------------|
D|----------------|--------5-3-2---|----------------|--------5-3-2---|
A|5-5-2---3-3-3---|----------------|5-5-2-2-3-3-2---|----------------|
E|----------------|3---3-----------|--------------5-|3---3-----------|
  1 + 2 + 3 + 4 +  1 + 2 + 3 + 4 +  1 + 2 + 3 + 4 +  1 + 2 + 3 + 4 +  

G|----------------|----------------|----------------|----------------|
D|----------------|--------5-3-2---|----------------|----------------|
A|5-5-2---3-3-3---|----------------|5-5-2-2-3-3-2---|----------------|
E|----------------|3---3-----------|--------------5-|3---3---3-1-0---|
  1 + 2 + 3 + 4 +  1 + 2 + 3 + 4 +  1 + 2 + 3 + 4 +  1 + 2 + 3 + 4 +  

G|----------------|----------------|----------------|----------------|
D|----------------|--------3-4-5---|----------------|--------5-3-2---|
A|5-5-2---3-3-3---|----------------|5-5-2---3-3-3---|----------------|
E|----------------|3---3-----------|----------------|3---3-----------|
  1 + 2 + 3 + 4 +  1 + 2 + 3 + 4 +  1 + 2 + 3 + 4 +  1 + 2 + 3 + 4 +
 
 fade out begins
G|----------------|----------------|----------------|----------------|
D|----------------|----------------|----------------|--------5-3-2---|
A|5-5-2---3-3-3---|----------------|5-5-2---3-3-3-2-|----------------|
E|----------------|3---3---3-1-0---|----------------|3---3-----------|
  1 + 2 + 3 + 4 +  1 + 2 + 3 + 4 +  1 + 2 + 3 + 4 +  1 + 2 + 3 + 4 + 

G|----------------|----------------|----------------|----------------|
D|----------------|--------5-3-2---|----------------|--------5-3-2---|
A|5-5-2---3-3-3---|----------------|5-5-2-2-3-3-2---|----------------| fade out
E|----------------|3---3-----------|--------------5-|3---3-----------|
  1 + 2 + 3 + 4 +  1 + 2 + 3 + 4 +  1 + 2 + 3 + 4 +  1 + 2 + 3 + 4 +   



************************************

| x   Dead note
| \   Slide down

************************************
Suggest correction
Give kudos to tab author, rate the tab!
1 2 3 4 5
comments
print report bad tab
guest
You may want to rate the tab now too:
select rating
Wanna post a correction for this tab? Suggest correction