Oops, an error
Loading. Please wait.

Kokomo Bass Tab

version 2
version 2

Whole song

  • This song topped Billhoard's Hot 100 in 1988.

Interactive

10 views 1 this week
no commentswrite comment
1 2 3 4 5
3 more votes to show rating
add to favorites
launch autoscroll
font size
0
reset
guitar tuner
Autoscroll
slow
fast
+/-
esc
set tempo
stop
Help us to improve Ultimate-Guitar.com Take our survey!
×
Author
Difficulty
intermediate
About this tab version
This song topped Billhoard's Hot 100 in 1988. Was this info helpful? Yes No
  Rest for 9 bars
  [Verse]
  Keys
G|----------------|----------------|0-----0-0-------|----------------|
D|----------------|----------------|----------------|3-----3-3-------|
A|3-----3-3-------|3-----3-3-------|----------------|----------------|
E|----------------|----------------|----------------|----------------|

G|----------------|----------------|----------------|0-----0-0-------|
D|3-----3-3-------|----------------|0-----0-0-------|----------------|
A|----------------|3-----3-3-------|----------------|----------------|
E|----------------|----------------|----------------|----------------|

G|----------------|----------------|0-----0-0-------|----------------|
D|----------------|----------------|----------------|3-----3-3-------|
A|3-----3-3-------|3-----3-3-------|----------------|----------------|
E|----------------|----------------|----------------|----------------|

G|----------------|----------------|----------------|0-----0-0-------|
D|3-----3-3-------|----------------|0-----0-0-------|----------------|
A|----------------|3-----3-3-------|----------------|----------------|
E|----------------|----------------|----------------|----------------|

  [Chorus]
G|----------------|----------------|----------------|----------------|
D|----------------|----------------|3-----3-3-------|3-----3-3-------|
A|3-----3-3-------|3-----3-3---1---|----------------|------------1---|
E|----------------|----------------|----------------|----------------|

G|----------------|----------------|----------------|----------------|
D|----------------|----------------|3-----3-3-----3-|--3---3-3-------|
A|3-----3-3-------|3-----3-3---1---|----------------|----------------|
E|----------------|----------------|----------------|----------------|

G|----------------|----------------|--------------0-|--0---0-0-------|
D|--------------2-|--2---2-2-------|0-----0-0-------|----------------|
A|3-----3-3-------|------------3---|----------------|----------------|
E|----------------|----------------|----------------|----------------|

G|0---------------|----------------|
D|----------------|----------------|
A|----------------|----------------|
E|----------------|----------------|

 [Verse]
G|----------------|----------------|0-----0-0-------|----------------|
D|----------------|----------------|----------------|3-----3-3-------|
A|3-----3-3-------|3-----3-3-------|----------------|----------------|
E|----------------|----------------|----------------|----------------|

G|----------------|----------------|----------------|0-----0-0-------|
D|3-----3-3-------|----------------|0-----0-0-------|----------------|
A|----------------|3-----3-3-------|----------------|----------------|
E|----------------|----------------|----------------|----------------|

G|----------------|----------------|0-----0-0-------|----------------|
D|----------------|----------------|----------------|3-----3-3-------|
A|3-----3-3-------|3-----3-3-------|----------------|----------------|
E|----------------|----------------|----------------|----------------|

G|----------------|----------------|----------------|0-----0-0-------|
D|3-----3-3-------|----------------|0-----0-0-------|----------------|
A|----------------|3-----3-3-------|----------------|----------------|
E|----------------|----------------|----------------|----------------|

  [Chorus]
G|----------------|----------------|----------------|----------------|
D|----------------|----------------|3-----3-3-------|3-----3-3-------|
A|3-----3-3-------|3-----3-3---1---|----------------|------------1---|
E|----------------|----------------|----------------|----------------|

G|----------------|----------------|----------------|----------------|
D|----------------|----------------|3-----3-3-----3-|--3---3-3-------|
A|3-----3-3-------|3-----3-3---1---|----------------|----------------|
E|----------------|----------------|----------------|----------------|

G|----------------|----------------|--------------0-|--0---0-0-------|
D|--------------2-|--2---2-2-------|0-----0-0-------|----------------|
A|3-----3-3-------|------------3---|----------------|----------------|
E|----------------|----------------|----------------|----------------|

G|0---------------|----------------|
D|----------------|----------------|
A|----------------|----------------|
E|----------------|----------------|

  [Sax Solo]
G|----------------|----------------|0-----0-0-------|----------------|
D|----------------|----------------|----------------|3-----3-3-------|
A|3-----3-3-------|3-----3-3-------|----------------|----------------|
E|----------------|----------------|----------------|----------------|

G|----------------|----------------|----------------|0-----0-0-------|
D|3-----3-3-------|----------------|0-----0-0-------|----------------|
A|----------------|3-----3-3-------|----------------|----------------|
E|----------------|----------------|----------------|----------------|

  [Verse]
G|----------------|----------------|0-----0-0-------|----------------|
D|----------------|----------------|----------------|3-----3-3-------|
A|3-----3-3-------|3-----3-3-------|----------------|----------------|
E|----------------|----------------|----------------|----------------|

G|----------------|----------------|----------------|0-----0-0-------|
D|3-----3-3-------|----------------|0-----0-0-------|----------------|
A|----------------|3-----3-3-------|----------------|----------------|
E|----------------|----------------|----------------|----------------|

 [Chorus]
G|----------------|----------------|----------------|----------------|
D|----------------|----------------|3-----3-3-------|3-----3-3-------|
A|3-----3-3-------|3-----3-3---1---|----------------|------------1---|
E|----------------|----------------|----------------|----------------|

G|----------------|----------------|----------------|----------------|
D|----------------|----------------|3-----3-3-----3-|--3---3-3-------|
A|3-----3-3-------|3-----3-3---1---|----------------|----------------|
E|----------------|----------------|----------------|----------------|

G|----------------|----------------|--------------0-|--0---0-0-------|
D|--------------2-|--2---2-2-------|0-----0-0-------|----------------|
A|3-----3-3-------|------------3---|----------------|----------------|
E|----------------|----------------|----------------|----------------|

  Keep repeating the above 12 bars for the Outro

Credit to Neckwringer for their version of this song. 
Suggest correction
Give kudos to tab author, rate the tab!
1 2 3 4 5
comments
print report bad tab
guest
You may want to rate the tab now too:
select rating
Wanna post a correction for this tab? Suggest correction