Oops, an error
Loading. Please wait.

Lookin At Tomorrow A Welfare Song Tab

10 views 1 this week
no commentswrite comment
1 2 3 4 5
1 last vote to show rating
add to favorites
launch autoscroll
font size
0
reset
how to read this tab
guitar tuner
Autoscroll
slow
fast
+/-
esc
set tempo
stop
Help us to improve Ultimate-Guitar.com Take our survey!
×
Author
Difficulty
novice
(The studio recording is old, so it sounds higher than standard. Tune to the recording to get the tuning
right if you want to play along to the recording.)

[Verse 1]
E-----------0-----------0-------------------0-----------0-------------------0-----------0------------
B-------0-----------0-----------0-------0-----------0-----------0-------0-----------0-----------0----
G---------------0-------------------------------0-------------------------------0--------------------
D---2-----------------------2-------0-----------------------0----------------------------------------
A-------------------------------------------------------------------4-----------------------4-------3
E----------------------------------------------------------------------------------------------------

E-------0-----------0--------
B---0-----------0-----------0
G-----------0----------------
D----------------------------
A-----------------------3----
E----------------------------

E-----------0-----------0-------------------0-----------0-------------------0-----------0------------
B-------0-----------0-----------0-------0-----------0-----------0-------0-----------0-----------0----
G---------------0-------------------------------0-------------------------------0--------------------
D----------------------------------------------------------------------------------------------------
A---2-----------------------2-------3-----------------------3-------4-----------------------4-------3
E----------------------------------------------------------------------------------------------------
                          
E-------0-----------0--------
B---0-----------0-----------0
G-----------0----------------
D----------------------------
A-----------------------3----
E----------------------------

E-----------0-----------0-------------------0-----------0-------------------0-----------0------------
B-------0-----------0-----------0-------0-----------0-----------0-------0-----------0-----------0----
G---------------0-------------------------------0-------------------------------0--------------------
D---2-----------------------2-------0-----------------------0----------------------------------------
A-------------------------------------------------------------------4-----------------------4-------3
E----------------------------------------------------------------------------------------------------

E-------0-----------0--------
B---0-----------0-----------0
G-----------0----------------
D----------------------------
A-----------------------3----
E----------------------------

E-----------0-----------0--------------------------------
B-------0-----------0-----------0---------------2---2----
G---------------0-------------------------------0---0----
D-----------------------------------------------2---2----
A---2-----------------------2-------0-----------0---0----
E--------------------------------------------------------

E-----------0-----------0-------------------0-----------0--------
B-------0-----------0-----------0-------2-----------2-----------2
G---------------0-------------------------------0-----------0----
D---2-----------------------2------------------------------------
A-----------------------------------0----------------------------
E---------------------------------------------------------------- (x2)

[Verse 2]
E-----------0-----------0-------------------0-----------0-------------------0-----------0------------
B-------0-----------0-----------0-------0-----------0-----------0-------0-----------0-----------0----
G---------------0-------------------------------0-------------------------------0--------------------
D---2-----------------------2-------0-----------------------0----------------------------------------
A-------------------------------------------------------------------4-----------------------4-------3
E----------------------------------------------------------------------------------------------------

E-------0-----------0--------
B---0-----------0-----------0
G-----------0----------------
D----------------------------
A-----------------------3----
E----------------------------

E-----------0-----------0-------------------0-----------0-------------------0-----------0------------
B-------0-----------0-----------0-------0-----------0-----------0-------0-----------0-----------0----
G---------------0-------------------------------0-------------------------------0--------------------
D----------------------------------------------------------------------------------------------------
A---2-----------------------2-------3-----------------------3-------4-----------------------4-------3
E----------------------------------------------------------------------------------------------------
                          
E-------0-----------0--------
B---0-----------0-----------0
G-----------0----------------
D----------------------------
A-----------------------3----
E----------------------------

E-----------0-----------0-------------------0-----------0-------------------0-----------0------------
B-------0-----------0-----------0-------0-----------0-----------0-------0-----------0-----------0----
G---------------0-------------------------------0-------------------------------0--------------------
D---2-----------------------2-------0-----------------------0----------------------------------------
A-------------------------------------------------------------------4-----------------------4-------3
E----------------------------------------------------------------------------------------------------

E-------0-----------0--------
B---0-----------0-----------0
G-----------0----------------
D----------------------------
A-----------------------3----
E----------------------------

E-----------0-----------0--------------------------------
B-------0-----------0-----------0---------------2---2----
G---------------0-------------------------------0---0----
D-----------------------------------------------2---2----
A---2-----------------------2-------0-----------0---0----
E--------------------------------------------------------

[Interlude]
E-----------0-----------0-------------------0-----------0-----------0-----------0----------------
B-------0-----------0-----------0-------0-----------0-----------0-----------0-----------0-------0
G---------------0--------------------------------------------------------------------------------
D---2-----------------------2-------2-----------4-----------5-----------7-----------5-------4----
A------------------------------------------------------------------------------------------------
E------------------------------------------------------------------------------------------------

E-----------0-----------0-----------0-----------0---------------------------0-----------0------------
B-------0-----------0-----------0-----------0-----------0-------0-------0-----------0-----------0----
G-------------------------------------------------------------------------------0--------------------
D---2-----------4-----------5-----------7-----------5-------4-------2-----------------------2-------2
A----------------------------------------------------------------------------------------------------
E----------------------------------------------------------------------------------------------------
                        
E-------0-----------0--------
B---0-----------0-----------0
G-----------0----------------
D-----------------------2----
A----------------------------
E----------------------------

[Verse 3]
E-----------0-----------0-------------------0-----------0-------------------0-----------0------------
B-------0-----------0-----------0-------0-----------0-----------0-------0-----------0-----------0----
G---------------0-------------------------------0-------------------------------0--------------------
D---2-----------------------2-------0-----------------------0----------------------------------------
A-------------------------------------------------------------------4-----------------------4-------3
E----------------------------------------------------------------------------------------------------

E-------0-----------0--------
B---0-----------0-----------0
G-----------0----------------
D----------------------------
A-----------------------3----
E----------------------------

E-----------0-----------0-------------------0-----------0-------------------0-----------0------------
B-------0-----------0-----------0-------0-----------0-----------0-------0-----------0-----------0----
G---------------0-------------------------------0-------------------------------0--------------------
D----------------------------------------------------------------------------------------------------
A---2-----------------------2-------3-----------------------3-------4-----------------------4-------3
E----------------------------------------------------------------------------------------------------
                          
E-------0-----------0--------
B---0-----------0-----------0
G-----------0----------------
D----------------------------
A-----------------------3----
E----------------------------

E-----------0-----------0-------------------0-----------0-------------------0-----------0------------
B-------0-----------0-----------0-------0-----------0-----------0-------0-----------0-----------0----
G---------------0-------------------------------0-------------------------------0--------------------
D---2-----------------------2-------0-----------------------0----------------------------------------
A-------------------------------------------------------------------4-----------------------4-------3
E----------------------------------------------------------------------------------------------------

E-------0-----------0--------
B---0-----------0-----------0
G-----------0----------------
D----------------------------
A-----------------------3----
E----------------------------

E-----------0-----------0--------------------------------
B-------0-----------0-----------0---------------2---2----
G---------------0-------------------------------0---0----
D-----------------------------------------------2---2----
A---2-----------------------2-------0-----------0---0----
E--------------------------------------------------------

E-----------0-----------0-------------------0-----------0--------
B-------0-----------0-----------0-------2-----------2-----------2
G---------------0-------------------------------0-----------0----
D---2-----------------------2------------------------------------
A-----------------------------------0----------------------------
E----------------------------------------------------------------

E-----------0-----------0-----------0-----------0----------------
B-------0-----------0-----------0-----------0-----------0-------0
G----------------------------------------------------------------
D---2-----------4-----------5-----------7-----------5-------4----
A----------------------------------------------------------------
E---------------------------------------------------------------- (x4)
Suggest correction
Give kudos to tab author, rate the tab!
1 2 3 4 5
comments
print report bad tab
guest
You may want to rate the tab now too:
select rating
Wanna post a correction for this tab? Suggest correction