Oops, an error
Loading. Please wait.

Surfin Safari Bass Tab

version 1
version 1

Whole song

Interactive

1,981 views 15 this week
1 commentread comment
1 2 3 4 5
please rate
add to favorites
launch autoscroll
font size
0
reset
guitar tuner
Tab Pro tools
  • play this tab
  • loop segment
  • change instrument
  • show fretboard
  • metronome
×
Best way to learn
"Surfin Safari"
Autoscroll
slow
fast
+/-
esc
set tempo
stop
Contributor
Surfin' Safari
The Beach Boys
Written by Brian Wilson and Mike Love; released as a single with "409" as the 
B-side, and on the album "Surfin' Safari".

Intro:
G|------- ------- ------- -------|------- ------- ------- -------|
D|2------------------------------|-------------------------------|
A|-------------------------------|5------------------------------|
E|-------------------------------|-------------------------------|
  Let's   go      surfin' now,    every - body's  learnin' how,


G|------- ------- ------- -------|------- ------- ------- -------|
D|-------------------------------|2-------2-------2-------2------|
A|2---------------2--------------|-------------------------------|
E|-------------------------------|-------------------------------|
  Come on and sa- fa- ri  with me!


G|------- ------- 0------ 2------|
D|2-------4----------------------|
A|-------------------------------|
E|-------------------------------|

 (come on and sa- fa- ri  with me)
Verse:
G|2------ ------- ------- -------|------- ------- 2------ 4------|
D|----------------2-------4------|0-------4----------------------|
A|--------4----------------------|-------------------------------|
E|-------------------------------|-------------------------------|
  Early  in the morning we'll be  star -  tin' out,           some
  ooooooooooooooooooooooooooooooooooooooooooooooooooooooooooooooo

G|------- ------- ------- -------|------- ------- ------- -------|
D|2------------------------------|----------------2-------4------|
A|--------0-------2-------4------|0-------4----------------------|
E|-------------------------------|-------------------------------|
  honeys  will be coming  a - long,                           We're
  oooooooooooooooooooooooooooooooooooooooooooooooooooooooooh

G|2------ ------- ------- -------|------- ------- 2------ 4------|
D|----------------2-------4------|0-------4----------------------|
A|--------4----------------------|-------------------------------|
E|-------------------------------|-------------------------------|
  loading up  our Woody  with our boards  in  -   side,   and
  ooooooooooooooooooooooooooooooooooooooooooooooooooooooooooooooo

G|------- ------- ------- -------|------- ------- ------- -------|
D|2------------------------------|----------------2-------4------|
A|--------0-------2-------4------|0-------4----------------------|
E|-------------------------------|-------------------------------|
  headin' out     singin' our song.
  oooooooooooooooooooooooooooooooooooooooooooooooooooooooooh
Refrain:
G|------- ------- ------- -------|2------ ------- ------- -------|
D|----------------2-------4------|----------------2-------4------|
A|0-------4----------------------|--------4----------------------|
E|-------------------------------|-------------------------------|
  Come    on,     ba  -   by,     wait and    see,    yes,
         (sur  -  fin',           surfin' sa- fa  -   ri,

G|2------ ------- ------- -------|2------ ------- ------- -------|
D|----------------2-------4------|----------------2-------4------|
A|--------4----------------------|--------4----------------------|
E|-------------------------------|-------------------------------|
  I'm     gonna   take    you     surfin' with me,    Come a-
          sur  -  fin',           surfin' sa- fa  -   ri,

G|------- ------- 2------ 4------|------- ------- 2------ 4------|
D|0-------4----------------------|0-------4----------------------|
A|-------------------------------|-------------------------------|
E|-------------------------------|-------------------------------|
  long    now,    ba  -   by,     wait and    see,    yeah,
          sur  -  fin',           surfin' sa- fa  -   ri,

G|2------ ------- ------- -------|2------ ------- ------- -------|
D|----------------2-------4------|----------------2-------4------|
A|--------4----------------------|--------4----------------------|
E|-------------------------------|-------------------------------|
  I'm     gonna   take    you     surfin' with me.
          sur  -  fin',           surfin' sa- fa  -   ri,

G|------- ------- ------- -------|------- ------- ------- -------|
D|2------------------------------|-------------------------------|
A|-------------------------------|5------------------------------|
E|-------------------------------|-------------------------------|
  Let's   go      surfin' now,    every - body's  learnin' how,


G|------- ------- ------- -------|------- ------- ------- -------|
D|-------------------------------|2-------2-------2-------2------|
A|2---------------2--------------|-------------------------------|
E|-------------------------------|-------------------------------|
  Come on and sa- fa- ri  with me!


G|------- ------- 0------ 2------|
D|2-------4----------------------|
A|-------------------------------|
E|-------------------------------|
                              At
 (come on and sa- fa- ri  with me)
Verse:
G|2------ ------- ------- -------|------- ------- 2------ 4------|
D|----------------2-------4------|0-------4----------------------|
A|--------4----------------------|-------------------------------|
E|-------------------------------|-------------------------------|
  Huntington  and Malibu they're  shooting the pier,          in
  ooooooooooooooooooooooooooooooooooooooooooooooooooooooooooooooo

G|------- ------- ------- -------|------- ------- ------- -------|
D|2------------------------------|----------------2-------4------|
A|--------0-------2-------4------|0-------4----------------------|
E|-------------------------------|-------------------------------|
  Rincon   they're walkin' the nose,                          We're
  oooooooooooooooooooooooooooooooooooooooooooooooooooooooooh

G|2------ ------- ------- -------|------- ------- 2------ 4------|
D|----------------2-------4------|0-------4----------------------|
A|--------4----------------------|-------------------------------|
E|-------------------------------|-------------------------------|
  go- in' on  sa- fa- ri  to  the islands this    year, so if you're
  ooooooooooooooooooooooooooooooooooooooooooooooooooooooooooooooo

G|------- ------- ------- -------|------- ------- ------- -------|
D|2------------------------------|----------------2-------4------|
A|--------0-------2-------4------|0-------4----------------------|
E|-------------------------------|-------------------------------|
  comin', get     ready   to  go!
  oooooooooooooooooooooooooooooooooooooooooooooooooooooooooh
Refrain:
G|2------ ------- ------- -------|2------ ------- ------- -------|
D|----------------2-------4------|----------------2-------4------|
A|--------4----------------------|--------4----------------------|
E|-------------------------------|-------------------------------|
  Come    on,     ba  -   by,     wait and    see,    yes,
         (sur  -  fin',           surfin' sa- fa  -   ri,

G|2------ ------- ------- -------|2------ ------- ------- -------|
D|----------------2-------4------|----------------2-------4------|
A|--------4----------------------|--------4----------------------|
E|-------------------------------|-------------------------------|
  I'm     gonna   take    you     surfin' with me,    Come a-
          sur  -  fin',           surfin' sa- fa  -   ri,

G|------- ------- 2------ 4------|------- ------- 2------ 4------|
D|0-------4----------------------|0-------4----------------------|
A|-------------------------------|-------------------------------|
E|-------------------------------|-------------------------------|
  long    now,    ba  -   by,     wait and    see,    yeah,
          sur  -  fin',           surfin' sa- fa  -   ri,

G|2------ ------- ------- -------|2------ ------- ------- -------|
D|----------------2-------4------|----------------2-------4------|
A|--------4----------------------|--------4----------------------|
E|-------------------------------|-------------------------------|
  I'm     gonna   take    you     surfin' with me.
          sur  -  fin',           surfin' sa- fa  -   ri,

G|------- ------- ------- -------|------- ------- ------- -------|
D|2------------------------------|-------------------------------|
A|-------------------------------|5------------------------------|
E|-------------------------------|-------------------------------|
  Let's   go      surfin' now,    every - body's  learnin' how,


G|------- ------- ------- -------|------- ------- ------- -------|
D|-------------------------------|2-------2-------2-------2------|
A|2---------------2--------------|-------------------------------|
E|-------------------------------|-------------------------------|
  Come on and sa- fa- ri  with me!


G|------- ------- 0------ 2------|
D|2-------4----------------------|
A|-------------------------------|
E|-------------------------------|

 (come on and sa- fa- ri  with me)
Verse (solo):
G|2------ ------- ------- -------|------- ------- 2------ 4------|
D|----------------2-------4------|0-------4----------------------|
A|--------4----------------------|-------------------------------|
E|-------------------------------|-------------------------------|



G|------- ------- ------- -------|------- ------- ------- -------|
D|2------------------------------|----------------2-------4------|
A|--------0-------2-------4------|0-------4----------------------|
E|-------------------------------|-------------------------------|



G|2------ ------- ------- -------|------- ------- 2------ 4------|
D|----------------2-------4------|0-------4----------------------|
A|--------4----------------------|-------------------------------|
E|-------------------------------|-------------------------------|



G|------- ------- ------- -------|------- ------- ------- -------|
D|2------------------------------|----------------2-------4------|
A|--------0-------2-------4------|0-------4----------------------|
E|-------------------------------|-------------------------------|
                                                              They're

Verse:
G|2------ ------- ------- -------|------- ------- 2------ 4------|
D|----------------2-------4------|0-------4----------------------|
A|--------4----------------------|-------------------------------|
E|-------------------------------|-------------------------------|
  anglin' in  La- gu- na  in      Cerro   A - zul,            they're
  ooooooooooooooooooooooooooooooooooooooooooooooooooooooooooooooo

G|------- ------- ------- -------|------- ------- ------- -------|
D|2------------------------------|----------------2-------4------|
A|--------0-------2-------4------|0-------4----------------------|
E|-------------------------------|-------------------------------|
  kickin' out at  Do- hi- ni  too,                    I  tell you
  oooooooooooooooooooooooooooooooooooooooooooooooooooooooooh

G|2------ ------- ------- -------|------- ------- 2------ 4------|
D|----------------2-------4------|0-------4----------------------|
A|--------4----------------------|-------------------------------|
E|-------------------------------|-------------------------------|
  surfing's mighty wild, it's getting bigger every day    from Ha-
  ooooooooooooooooooooooooooooooooooooooooooooooooooooooooooooooo

G|------- ------- ------- -------|------- ------- ------- -------|
D|2------------------------------|----------------2-------4------|
A|--------0-------2-------4------|0-------4----------------------|
E|-------------------------------|-------------------------------|
  waii    to  the shores of Peru.
  oooooooooooooooooooooooooooooooooooooooooooooooooooooooooh
Refrain:
G|2------ ------- ------- -------|2------ ------- ------- -------|
D|----------------2-------4------|----------------2-------4------|
A|--------4----------------------|--------4----------------------|
E|-------------------------------|-------------------------------|
  Come    on,     ba  -   by,     wait and    see,    yes,
         (sur  -  fin',           surfin' sa- fa  -   ri,

G|2------ ------- ------- -------|2------ ------- ------- -------|
D|----------------2-------4------|----------------2-------4------|
A|--------4----------------------|--------4----------------------|
E|-------------------------------|-------------------------------|
  I'm     gonna   take    you     surfin' with me,    Come a-
          sur  -  fin',           surfin' sa- fa  -   ri,

G|------- ------- 2------ 4------|------- ------- 2------ 4------|
D|0-------4----------------------|0-------4----------------------|
A|-------------------------------|-------------------------------|
E|-------------------------------|-------------------------------|
  long    now,    ba  -   by,     wait and    see,    yeah,
          sur  -  fin',           surfin' sa- fa  -   ri,

G|2------ ------- ------- -------|2------ ------- ------- -------|
D|----------------2-------4------|----------------2-------4------|
A|--------4----------------------|--------4----------------------|
E|-------------------------------|-------------------------------|
  I'm     gonna   take    you     surfin' with me.
          sur  -  fin',           surfin' sa- fa  -   ri,

G|------- ------- ------- -------|------- ------- ------- -------|
D|2------------------------------|-------------------------------|
A|-------------------------------|5------------------------------|
E|-------------------------------|-------------------------------|
  Let's   go      surfin' now,    every - body's  learnin' how,


G|------- ------- ------- -------|------- ------- ------- -------|
D|-------------------------------|2-------2-------2-------2------|
A|2---------------2--------------|-------------------------------|
E|-------------------------------|-------------------------------|
  Come on and sa- fa- ri  with me!


G|------- ------- 0------ 2------|
D|2-------4----------------------|
A|-------------------------------|
E|-------------------------------|

 (come on and sa- fa- ri  with
Outro:
G|2------ ------- ------- -------|2------ ------- ------- -------|
D|----------------2-------4------|----------------2-------4------|
A|--------4----------------------|--------4----------------------|
E|-------------------------------|-------------------------------|
  Surfin' sa- fa  -   ri,         surfin' sa- fa  -   ri,
  me,                 yeah,       me,                 with...
Repeat and fade out...

Please e-mail me for any corrections, or write a comment.
comments
We did not receive enough feedback on this tab! Please rate:
print report bad tab
1 2 3 4 5
1 comment total.
0 reply
asdfghjklspn wrote on September 14 2014, 12:13 am

perfect :)

I want to post or [tab]
guest
You may want to rate the tab now too:
select rating
Please do not post tabs as comments. Select "correction" instead!