Oops, an error
Loading. Please wait.

Surfin Safari bass

version 2
version 2

Whole song

  • This tab uses some different notes as well as a di... Show more

Interactive

193 views 6 this week
no commentswrite comment
1 2 3 4 5
3 more votes to show rating
add to favorites
×
Save as Personal and add changes to this tab that will be seen only by you. Learn more ›
×
You can save this tab as Personal to edit and correct it or add notes. All changes will be seen only by you. Learn more »
launch autoscroll
font size
0
reset
guitar tuner
edit
Autoscroll
slow
fast
+/-
esc
set tempo
stop
Author
About this tab version
This tab uses some different notes as well as a different place on th fret board as well as some different patterns along the Pentatonic scale. Was this info helpful? Yes No
Time signature: 4/4

r = rest (listen for duration)
||= measure gets repeated (see number of times above measure, e.g. 4x)

*My tabs are meant to be read in conjunction with listening to the song.
In other words, there are no specific notations to account for note/rest duration. 
However, you will find that I've made an attempt to strategically space the notes 
and rests within their respective measures in order to represent the appropriate 
durations.


CHORUS

G|--------------------------------|--------------------------------|
D|--------------------------------|--------------------------------|
A|7---r---------------------------|5---r---------------------------|
E|--------------------------------|--------------------------------|


G|--------------------------------|--------------------------------|
D|--------------------------------|--------------------------------|
A|--------------------------------|7---r---7---r---7---r---7---r---|
E|7---r-----------7---r-----------|--------------------------------|


G|--------------------------------|
D|--------------------------------|
A|7-------5-------4---------------|
E|------------------------7-------|


VERSE

   2x
G||--------------------------------|------------------------4-------|
D||------------------------4-------|--------4-------7---------------|
A||--------4-------7---------------|5-------------------------------|
E||5-------------------------------|--------------------------------|


G|--------------------------------|--------------------------------||
D|--------6-------9-------6-------|------------------------4-------||
A|7-------------------------------|--------4-------7---------------||
E|--------------------------------|5-------------------------------||


PRE-CHORUS

   2x
G||--------------------------------|--------------------------------||
D||7-----------------------4-------|------------------------4-------||
A||--------4-------7---------------|--------4-------7---------------||
E||--------------------------------|5-------------------------------||


G|7-----------------------4-------|------------------------4-------|
D|--------4-------7---------------|--------4-------7---------------|
A|--------------------------------|5-------------------------------|
E|--------------------------------|--------------------------------|


G|--------------------------------|--------------------------------|
D|7-----------------------4-------|------------------------4-------|
A|--------4-------7---------------|--------4-------7---------------|
E|--------------------------------|5-------------------------------|


[CHORUS]

[VERSE]

[PRE-CHORUS]

[VERSE] 2x

[PRE-CHORUS]

[CHORUS]


OUTRO (To fade)

G||--------------------------------|--------------------------------||
D||------------------------4-------|------------------------4-------||
A||--------4-------7---------------|--------4-------7---------------||
E||5-------------------------------|5-------------------------------||


 

            
            
Suggest correction
Creating personal tab
Creating personal tab
You can edit any tab online and save it as your Personal.

You can edit, replace or remove any tab part or add personal notes – all changes will be seen only by you.

Personal tabs can be accessed anytime from any device, even offline.
Learn more »
Give kudos to tab author, rate the tab!
1 2 3 4 5
comments
print report bad tab
guest
You may want to rate the tab now too:
select rating
Wanna post a correction for this tab? Suggest correction