Oops, an error
Loading. Please wait.

Then I Kissed Her bass

3,048 views 3 this week
1 commentread comment
1 2 3 4 5
x 3
add to favorites
×
Save as Personal and add changes to this tab that will be seen only by you. Learn more ›
×
You can save this tab as Personal to edit and correct it or add notes. All changes will be seen only by you. Learn more »
launch autoscroll
font size
0
reset
guitar tuner
edit
Autoscroll
slow
fast
+/-
esc
set tempo
stop
Difficulty
intermediate
1ST MOVEMENT


Well walked up to her and asked her if she wanted to dance,
She looked awful nice and so I hoped she might take a chance.


G-----------------------------------------------------------------------------------|
D-----3-4-3-------------3-1-----3-4-3--(X3)------3-1-------3-4-3--------------------|
A---4--------(X5)----3-------4----------------3---------4--------(X2)---------------|
E-------------------4------------------------4--------------------------------------|

When we danced I held her tight,
Then I walked her home that night

G-------------------3-1---------------------3-1-------------------------------------|
D-----------------3-----------------------3-----------------------------3-4-3-(x2)--|
A-------6-4-----4---------------6-4-----4----------4-6-4/8-------3----4-------------|
E--2--6--------------------2--6----------------------------4-6-4--------------------|


2ND MOVEMENT

Repeat 1st movement

Bridge

I kissed her in a way that I never kissed a girl before
I kissed her in a way that I hoped she liked forever more

G------------------------------------------------------------------|
D------------------------------------------------------------------|
A----------------------------6-666-666-666-666---------------------|
E--2-222-222-222-222-222-22-------------------4-444-44-4444444444--|


3rd MOVEMENT

I knew that she was mine so I gave her all the love that I had,
And one day she'll take me home to eet her mom and her dad.

G-----------------------------------------------------------------------------------|
D-----3-4-3------3-1------3-4-3 (X3)-------3-1--------3-4-3--(X2)-------------------|
A---4----------3--------4----------------3----------4-------------------------------|
E------------4-------------------------4--------------------------------------------|

And then I asked her to be my bride,
And always be right by my side,
I felt so happy I almost cried, and then I kissed her......

G-------------------3-1---------------------3-1-----------------------------------------------|
D-----------------3-----------------------3-----------------------------3-4-3-Keep Repeating--|
A-------6-4-----4---------------6-4-----4----------4-6-4/8-------3----4-----------------------|
E--2--6--------------------2--6----------------------------4-6-4------------------------------|

            
            
Suggest correction
Creating personal tab
Creating personal tab
You can edit any tab online and save it as your Personal.

You can edit, replace or remove any tab part or add personal notes – all changes will be seen only by you.

Personal tabs can be accessed anytime from any device, even offline.
Learn more »
Give kudos to tab author, rate the tab!
1 2 3 4 5
comments
print report bad tab
1 comment total.
0 reply
Lemmon 71 Jul 12, 2008 08:08 AM

It's ok, but not as good as Plastic Shoe
5 stars

guest
Wanna post a correction for this tab? Suggest correction