Oops, an error
Loading. Please wait.
We have Chord Pro version of Wouldnt It Be Nice.
It's the closest thing you can get to the original song and it has interactive parts. Check out the tab »
×
82,003 views 183 this week
3 commentsread comments
1 2 3 4 5
x 10
add to favorites
×
Save as Personal and add changes to this tab that will be seen only by you. Learn more ›
×
You can save this tab as Personal to edit and correct it or add notes. All changes will be seen only by you. Learn more »
launch autoscroll
font size
0
reset
how to read this tab
guitar tuner
backing track
0:00
0:00
edit
Autoscroll
slow
fast
+/-
esc
set tempo
stop
Author
Unregistered
                         "Wouldn't It Be Nice"
                      (Brian Wilson / Tony Asher)

[Intro]

        (A)        (F#m)         (Bm)         (D)
         v     v     v     v       v     v     v     v
e|-------17----------------|-------17----------------|
B|----------17-------17----|----------19-------19----|
G|----18-------18-19----18-|----19-------19-21----19-|
D|-19----------------------|-21----------------------|
A|-------------------------|-------------------------|
E|-------------------------|-------------------------|

        (A)        (F#m)          (C)
         v     v     v     v       v     v     v     v
e|-------17----------------|-------17----------------|
B|----------17-------17----|----17----17-------17----|
G|----18-------18-19----18-|-17----------17-19----17-|
D|-19----------------------|-------------------------|
A|-------------------------|-------------------------|
E|-------------------------|-------------------------|


[Verse 1]

                        F
        Wouldn't it be nice if we were older
                         Bb             Gm7
        And we wouldn't have to wait so long
            C7              F
        And wouldn't it be nice to live together
                        Bb              Gm7   C7
        In the kind of world where we belong

        Dm7/A                      Cm7/F
        You know it's gonna make it that much better
        Dm7/A                         Am7     Gm7    C7
        When we can say goodnight and stay together


[Verse 2]

        Wouldn't it be nice if we could wake up
        In the morning when the day is new
        And after having spent the day together
        Hold each other close the whole night through

        What happy times together we'd be spending
        I wish that every kiss was never ending

                            F
        Oh, wouldn't it be nice

   v   v   v   v     v   v   v   v
e|-----------------|---------------|
B|-----------------|---------------|
G|-----2-----2-3-2-|---------------|
D|-----------------|-------3---3---|
A|-----------------|---3-5-------5-|
E|-----------------|---------------|


[Bridge]
(guitar repeats first two bars of intro):

        Dmaj7       Gmaj7                                F#m7           Bm7
        Maybe if we think and wish and hope and pray it might come true
        Dmaj7            Gmaj7                          F#m7       Bm7
        Maybe then there wouldn't be a single thing we couldn't do
                     F#m7                 Bm7
        We could be married (we could be married)
                         F#m7                C7
                         - last two bars of intro -
        And then we'd be happy (then we'd be happy)
                          F
        Oh, wouldn't it be nice


[Coda]

        (slow down)

        Dm7/A                         Cm7/F
        You know it seems the more we talk about it
        Dm7/A                     Am7      Gm7
        It only makes it worse to live without it
                 Am7    Gm7       C7
        But lets talk about it

        (resume original tempo)

                        F
        Wouldn't it be nice

        Good night, baby
        Sleep tight, baby... [fade]
Suggest correction
Creating personal tab
Creating personal tab
You can edit any tab online and save it as your Personal.

You can edit, replace or remove any tab part or add personal notes – all changes will be seen only by you.

Personal tabs can be accessed anytime from any device, even offline.
Learn more »
comments
print report bad tab
3 comments total.
+4 reply
maguri [tm] 31,219 May 20, 2011 09:13 AM

Good work!
But the the intro is unplayable for me. Here's what I'd suggest:

INTRO
[A F#m Bm D A F#m Bm C]
e|----5-----------|----------------|----5-----------|----------------|
B|------5-----5---|----10-7----7---|------5-----5---|----10-7------8-|
G|--6-----6h7---6-|--7-----7h9---7-|--6-----6h7---6-|--7-------9-10--|
D|7---------------|9---------------|7---------------|9-------10------|
A|----------------|----------------|----------------|----------------|
E|----------------|----------------|----------------|----------------|

0 reply
Tone Jones 21,237 Jun 07, 2012 09:28 PM

It is correct but missing the low medly (harp)

-1 reply
Tatazildo 443 Aug 20, 2013 03:25 AM

Also it's credited to Mike Love!

guest
Wanna post a correction for this tab? Suggest correction