Oops, an error
Loading. Please wait.
We have Chord Pro version of Wouldnt It Be Nice.
It's the closest thing you can get to the original song and it has interactive parts. Check out the tab »
×

Wouldnt It Be Nice bass

version 2
version 2

Whole song

Interactive

4,100 views 3 this week
no commentswrite comment
1 2 3 4 5
3 more votes to show rating
add to favorites
×
Save as Personal and add changes to this tab that will be seen only by you. Learn more ›
×
You can save this tab as Personal to edit and correct it or add notes. All changes will be seen only by you. Learn more »
launch autoscroll
font size
0
reset
guitar tuner
backing track
0:00
0:00
edit
Autoscroll
slow
fast
+/-
esc
set tempo
stop
Author
Difficulty
The Beach Boys - Wouldn't it Be Nice

Tabbed by Kevin Osborne
Felt that some parts were missing or slightly wrong on the previous tab.
Mainly an update after several plays of the song to figure them out.

Intro (Guitar Only)

Verse 1

G --------------------------------------------------------------|
D ----------3--3--3--5--3---------------------------------------|
A -------------------------5--3--5--1--1--1--0-----5-3-5--------|
E ----------------------------------------------3---------------|


G --------------------------------------------------------------|
D ----------3--3--3--5--3---------------------------------------|
A -------------------------5--3--5--1--1--1--0-----5-3-5--------|
E ----------------------------------------------3---------------|


G --------------------------------------------------------------|
D --------------------------------------------------------------|
A ---0-0-0-0---------0-0-0-0---------3-3-3-3-3-3-3-3------------|
E -----------1-1-1-1---------3-3-3-3----------------------------|


Verse 2


G --------------------------------------------------------------|
D ----------3--3--3--5--3---------------------------------------|
A -------------------------5--3--5--1--1--1--0-----5-3-5--------|
E ----------------------------------------------3---------------|


G --------------------------------------------------------------|
D ----------3--3--3--5--3---------------------------------------|
A -------------------------5--3--5--1--1--1--0-----5-3-5--------|
E ----------------------------------------------3---------------|


G --------------------------------------------------------------|
D --------------------------------------------------------------|
A ---0-0-0-0---------0-0-0-0---------3-3-3-3-3-3-3-3------------|
E -----------1-1-1-1---------3-3-3-3---------------------1------|


Bridge


G --------------------------------------------------------------|
D --------------------------------------------------------------|
A -----5--5-----------------------------------------------------|
E -----------5-3--3--3-5-3-2--2--5-3--3-------------------------|


G --------------------------------------------------------------|
D --------------------------------------------------------------|
A -----5--5-----------------------------------------------------|
E -----------5-3--3--3-5-3-2--2--5-3--3-------------------------|


G --------------------------------------------------------------|
D --------------------------------------------------------------|
A ------------2-2-2-2----------3-3-3-3--------------------------|
E ---2-2-2-2-----------2-2-2-2----------------------------------|


Verse


G --------------------------------------------------------------|
D ----------3--3--3--5--3---------------------------------------|
A -------------------------5--3--5------------------------------|
E --------------------------------------------------------------|


G --------------------------------------------------------------|
D ----------3--3--3--5--3---------------------------------------|
A -------------------------5--3--5------------------------------|
E --------------------------------------------------------------|

(Slower)
G --------------------------------------------------------------|
D ----------3--3--3--5--3---------------------------------------|
A -------------------------5--3--5------------------------------|
E --------------------------------------------------------------|

G --------------------------------------------------------------|
D -----------------------3--------------------------------------|
A ---------------------3---3------------------------------------|
E ----5-5-5--7-5-3-1-3-------5-3---5-5-5-5----------------------|


G --------------------------------------------------------------|
D --------7---------------5-------------7---------------5-------|
A ------7---7-----------5---5---------7---7-----------5---5-----|
E --5-8-------8-5---3-6------6-3--5-8-------8-5---3-6-------6-3-|


G---------------------------------------------------------------|
D --------------------------------------------------------------|
A ----3-3-3-3---------------------------------------------------|
E --------------------------------------------------------------|


Outro (repeat to fade)

G --------------------------------------------------------------|
D ----------3--3--3--5--3---------------------------------------|
A -------------------------5--3--5------------------------------|
E --------------------------------------------------------------|
Suggest correction
Creating personal tab
Creating personal tab
You can edit any tab online and save it as your Personal.

You can edit, replace or remove any tab part or add personal notes – all changes will be seen only by you.

Personal tabs can be accessed anytime from any device, even offline.
Learn more »
Give kudos to tab author, rate the tab!
1 2 3 4 5
comments
print report bad tab
guest
You may want to rate the tab now too:
select rating
Wanna post a correction for this tab? Suggest correction