Oops, an error
Loading. Please wait.

All Your Life tab

22 views 1 this week
no commentswrite comment
1 2 3 4 5
3 more votes to show rating
add to favorites
×
Save as Personal and add changes to this tab that will be seen only by you. Learn more ›
×
You can save this tab as Personal to edit and correct it or add notes. All changes will be seen only by you. Learn more »
launch autoscroll
font size
0
reset
how to read this tab
guitar tuner
edit
Autoscroll
slow
fast
+/-
esc
set tempo
stop
Author
Unregistered
Fig 1
e|---|-------------------|--------------------------|
B|---|-------------------|--------------------------|
G|---|-----2--------2----|-----2---2h4p2h4p2h4p2----|
D|-2-|-2h4----2-2h4----2-|-2h4---2------------------|
A|---|-------------------|--------------------------|
E|---|-------------------|--------------------------|

 Fig 2
e|------------------|
B|--------2---------|
G|-----2----2-------|
D|---2---------4--2-|
A|-0-----------5----|
E|------------------|

[Intro]

Fig 1 + Fig 2
F#m A D (2x)


[Verse]

F#m A D (2x)
A D
C#m Bm (3x)
A


[Mellanspel]

F#m A D (2x)


[Chorus]

A D F#m (3x)
A D


[Verse]

for every building there's a bomb
there are more bullets than bullies 
I am sure but not enough of the love
that you have longed for


[Chorus]

I've fallen into the same hole more than twice (all your life)
only to be by your side (all your life)


[Verse]

warm dark night, this place is so well-known
I can taste the air's humidity,
smell the winter in a bee
still amazed that loss can decree


[Chorus]

I've fallen on my face so many times (all your life)
only to be by your side (all your life)


[Outro]

all your life
all your life

            
            
Suggest correction
Creating personal tab
Creating personal tab
You can edit any tab online and save it as your Personal.

You can edit, replace or remove any tab part or add personal notes – all changes will be seen only by you.

Personal tabs can be accessed anytime from any device, even offline.
Learn more »
Give kudos to tab author, rate the tab!
1 2 3 4 5
comments
print report bad tab
guest
Wanna post a correction for this tab? Suggest correction