Oops, an error
Loading. Please wait.

Blizzard tab

7 views 1 this week
no commentswrite comment
1 2 3 4 5
3 more votes to show rating
add to favorites
×
Save as Personal and add changes to this tab that will be seen only by you. Learn more ›
×
You can save this tab as Personal to edit and correct it or add notes. All changes will be seen only by you. Learn more »
launch autoscroll
font size
0
reset
how to read this tab
guitar tuner
edit
Autoscroll
slow
fast
+/-
esc
set tempo
stop
Author
Unregistered
[Verse]
 
  Gtr I  
e|-----------------|-----------------|-2-2-2-2-2-2-2-2-|-2-2-2-2-2-2-2-2-|
B|-2-2-2-2-2-2-2-2-|-2-2-2-2-2-2-2-2-|-2-2-2-2-2-2-2-2-|-3-3-3-3-3-3-3-3-|
G|-2-2-2-2-2-2-2-2-|-2-2-2-2-2-2-2-2-|-2-2-2-2-2-2-2-2-|-2-2-2-2-2-2-2-2-|
D|-2-2-2-2-2-2-2-2-|-2-2-2-2-2-2-2-2-|-4-4-4-4-4-4-4-4-|-0-0-0-0-0-0-0-0-|
A|-0-0-0-0-0-0-0-0-|-0-0-0-0-0-0-0-0-|-4-4-4-4-4-4-4-4-|-----------------|
E|-----------------|-----------------|-2-2-2-2-2-2-2-2-|-----------------|
 | A                                   F#m               D
 |
 | Gtr II
e|-----------------|-----------------|-----4-------2---|-----------------|
B|-----2-------3---|-----2-------3---|-----------------|-----3-------2---|
G|-----------------|-----------------|-----------------|-----------------|
D|-----------------|-----------------|-----------------|-----------------|
A|-----------------|-----------------|-----------------|-----------------|
E|-----------------|-----------------|-----------------|-----------------|
 |
 | Bass
G|-----------------|-----------------|-----------------|------------------|
D|-----------------|-----------------|-----------------|------------------|
A|-0-0-0-0-0-0-0-0-|-4-4-4-4-4-4-4-4-|-----------------|-2-2-2-2-/5-5-5-5-|
E|-----------------|-----------------|-2-2-2-2-2-2-2-2-|------------------|

[Refräng]

E Dmaj7

************************************

| /  Slide up

************************************


[Lyrics]

I'm out, I've slept all day 
I need a walk in fresh air tonight
first snow comes down 
pounders my good coat 
melts on the street 
and my shoes get soaked 

hey blizzard light up the sky 
light up the ground 
'cause it's nice to see 
I've got a long walk ahead of me 
come down and bury me 

last night my love shut the door 
her yelling started in the hall 
and ended in the kitchen 
and made no sense at all 
it's all been said before 

hey blizzard level with me 
because I'd like to feel 
how you fling down on me 
cover me up and leave 

hey blizzard don't get bored 
you have done this before 
it feels like we've always been here
please make me disappear
Suggest correction
Creating personal tab
Creating personal tab
You can edit any tab online and save it as your Personal.

You can edit, replace or remove any tab part or add personal notes – all changes will be seen only by you.

Personal tabs can be accessed anytime from any device, even offline.
Learn more »
Give kudos to tab author, rate the tab!
1 2 3 4 5
comments
print report bad tab
guest
Wanna post a correction for this tab? Suggest correction