Oops, an error
Loading. Please wait.

Helpless tab

31 views 3 this week
no commentswrite comment
1 2 3 4 5
3 more votes to show rating
add to favorites
×
Save as Personal and add changes to this tab that will be seen only by you. Learn more ›
×
You can save this tab as Personal to edit and correct it or add notes. All changes will be seen only by you. Learn more »
launch autoscroll
font size
0
reset
how to read this tab
guitar tuner
edit
Autoscroll
slow
fast
+/-
esc
set tempo
stop
Capo på 7:e bandet

Csus2: x32030
Em7:   022030
Fmaj7: 133210
Em7*:  022003
G/D:   xx0003


[Verse]

   C
e|----3-----0-3---|     |----3-------3---| 
B|-1----3-------3-|     |-1----3-3h5-----| 
G|----------------| 3x  |--------------5-| 
D|----------------|     |----------------|
A|-3--------------|     |-3------------- | 
E|----------------|     |----------------| 

   Am
e|---5-------5---|----5-----0h3---|
B|-------3h5-----|--------5-------|      
G|-----5-------5-|-2----2-------0-|      
D|---------------|----------------|        
A|-0-------------|-0--------------|        
E|---------------|----------------|        

   Em
e|---3-------3---|---3-------3---|
B|-----5---5---5-|-----5---5---5-|
G|---------------|-------4-------|
D|-2-------------|-2-------------|  
A|-------2-------|---------------| 
E|---------------|---------------|  
eller om man bara spelar ackorden:
|C    |     |Am   |Em   |

[Refräng] ("helpless....")
|Csus2 |Em7   |Fmaj7 Em7* |Fmaj7 G/D |

************************************

| h  Hammer-on

************************************

[Lyrics]

[Verse]

drove you home
took the long road just so I could
hear more of your voice
suddenly you said it all


[Chorus]

helpless, so helpless
helpless, so helpless, helpless


[Verse]

first you walked out of her life
and then your own
did you best towards the end
but it didn't count


[Chorus]

helpless, so helpless
helpless, so helpless, helpless


[Verse]

no prayer, no promise
I know it doesn't help
the sound of a train passing by
is all it takes


[Chorus]

helpless, so helpless
helpless, so helpless, helpless

            
            
Suggest correction
Creating personal tab
Creating personal tab
You can edit any tab online and save it as your Personal.

You can edit, replace or remove any tab part or add personal notes – all changes will be seen only by you.

Personal tabs can be accessed anytime from any device, even offline.
Learn more »
Give kudos to tab author, rate the tab!
1 2 3 4 5
comments
print report bad tab
guest
Wanna post a correction for this tab? Suggest correction