Oops, an error
Loading. Please wait.

I Had A Job tab

16 views 1 this week
no commentswrite comment
1 2 3 4 5
3 more votes to show rating
add to favorites
×
Save as Personal and add changes to this tab that will be seen only by you. Learn more ›
×
You can save this tab as Personal to edit and correct it or add notes. All changes will be seen only by you. Learn more »
launch autoscroll
font size
0
reset
how to read this tab
guitar tuner
edit
Autoscroll
slow
fast
+/-
esc
set tempo
stop
Capo på 3:e bandet

[Intro]

   C      G/B             Am       C      G/B             Am
e|---3-0----3-0--|---3-0----5-0--|-----0-----3-0--|---3-0----5-0--|
B|-1---1--0---0--|-0---0------1--|-1---1-------0--|-0---0------1--|
G|---------------|---------------|---0------------|---------------|
D|---------------|---------------|----------------|---------------|
A|---------------|--------0------|--------2-------|--------0------|
E|---------------|---------------|----------------|---------------|

   C      G/B             Am       C      G/B              Am
e|---3-0----3-0--|---3-0----5-0--|-----0-----3-0--|---3-0------0--|
B|-1---1--0---0--|-0---0------1--|-1---1--0----0--|-0---0------1--|
G|---------------|---------------|---0------------|--------2------|
D|---------------|---------------|----------------|----------2----|
A|---------------|--------0------|----------------|---------------|
E|---------------|---------------|----------------|---------------|


[Verse]

   C      G/B             Am       C      G/B              Am
e|---3-0----3-0--|---3-0----5-0--|-----0-----3-0--|---3-0----5-0--|
B|-1---1--0---0--|-0---0------1--|-1---1--0----0--|-0---0------1--|
G|---------------|---------------|---0------------|---------------|
D|---------------|---------------|----------------|---------------|
A|---------------|--------0------|----------------|--------0------|
E|---------------|---------------|----------------|---------------|


[Interlude]
Lite svårt att höra exakt vad gitarren spelar här, men såhär är det på ett
ungefär. Den nedre stämman är pianot arrangerat för gitarr.

   C       G/B                Am        C       G/B                Am
e|---0-0---3------0-|---------0---0---|---0-0------3-3-0-|---------0---0---0--|
B|---1-1-1-3--3-3-0-|-3---3-5-1---1-3-|---1-1-1-3--3-3-0-|-3---3-5-1---1---1--|
G|------------0-----|-0---------------|------------------|---------------2----|
D|------------------|-----------2-----|------------------|-----------2--------|
A|-3-----0-2--------|-2-3-5-7-0-------|-3-----0-2--------|-2-2-5-7-0----------|
E|------------------|-----------------|------------------|--------------------|
|
 | Piano
e|-0-1-0------------|-----------------|-0-1-0------------|--------------------|
B|-------1-3--------|-0-1-0-----------|-------1-3--------|-0-1-0--------------|
G|------------------|-------0-2-------|------------------|-------0-2----------|
D|------------------|-----------------|------------------|--------------------|
A|------------------|-----------------|------------------|--------------------|
E|------------------|-----------------|------------------|--------------------|



[Lyrics]

once upon a time i had a job
cleaning an office landscape
the lunch and smooking room, the toilets
worked evenings all alone

listened to music, full volume
smoked where I pleased
admired the view
used their telephones, cried
I was so in love with you then

one evening a saw
my friends walk into town
I felt like a spy
no, a guardian
at peace with everything
a bond
because they seemed to have so much fun

it made me so happy
I got sad
or the other way around
I forget
one day I'll be dead
I'll die
my horror, small comfort
the only sure sthing
the only sure thing

            
            
Suggest correction
Creating personal tab
Creating personal tab
You can edit any tab online and save it as your Personal.

You can edit, replace or remove any tab part or add personal notes – all changes will be seen only by you.

Personal tabs can be accessed anytime from any device, even offline.
Learn more »
Give kudos to tab author, rate the tab!
1 2 3 4 5
comments
print report bad tab
guest
Wanna post a correction for this tab? Suggest correction