Oops, an error
Loading. Please wait.

Mom And Dad chords

34 views 3 this week
no commentswrite comment
1 2 3 4 5
3 more votes to show rating
add to favorites
×
Save as Personal and add changes to this tab that will be seen only by you. Learn more ›
×
You can save this tab as Personal to edit and correct it or add notes. All changes will be seen only by you. Learn more »
launch autoscroll
font size
0
reset
transpose
0
reset
simplify chords
display chords
guitar tuner
edit
Autoscroll
slow
fast
+/-
esc
set tempo
stop
Author
Unregistered
Strumming
There is no strumming pattern for this song yet. and get +5 IQ
[Fig 1]
   Fmaj7                        C
e|----0-0--0--------0-0--0----|----0-0--0--------0-0--0------|
B|----1-1--1--------1-1--1----|----1-1--1--------1-1--1------|
G|----2-2--2-0h2----2-2--2-0--|----0-0--0--------0-0--0------|
D|-3-------------3------------|----2-2--2-0h2----2-2--2-0----|
A|----------------------------|-3-------------3--------------|
E|----------------------------|------------------------------|
  
   Dm7                     Fmaj7
e|-1--0------3-----------|----0-0--0--------0-0--0--------|
B|-1-----1------0-----1--|----1-1--1--------1-1--1--------|
G|-2-------2-------2-----|----2-2--2-0h2----2-2--2-0h2----|
D|-----------------------|-3-------------3----------------|
A|-----------------------|--------------------------------|
E|-----------------------|--------------------------------|

 [Fig 2]
   G                        F
e|-----3-------5--3----3--|-1--0----0--1-------|----|
B|-----3--3------------3--|-1----1--------1----|----|
G|-----4------------------|-2---------------2--|----|
D|-/5-------5--------5----|-3------------------|----|
A|------------------------|--------------------|----|
E|------------------------|--------------------|----|

[Verse]
Fig 1 + Fig 1 + Fig 2

[Refräng]
C Am F G

************************************

| h  Hammer-on
| /  Slide up

************************************


[Intro]

Fig 1 + Fig 1


[Verse]

Fmaj7                C
I caught mom and dad making out
   Dm7                                 Fmaj7
realizing for the first time they were human
          Fmaj7                             C
they were outside it was summer they were
                     Dm7                    Fmaj7
clearly insane and I peered from behind the curtains


[Hook]

G                     F
mom wore a long black dress
    G                           F
and dad had his blue jean shirt up
G                   F
I'd woken up from a dream
     G                     F
and  I couldn't go back to sleep


[Verse]

Fmaj7                                 C
cutting class in the first grade what do you make of that
   Dm7                                  Fmaj7
my life was run by books and television
Fmaj7                         C
running manic down the stairs at the age of eight
Dm7                                Fmaj7
where do all these memories fit in


[Hook]

G                F  
stealing pornography
G                          F
caught with my pants on my feet
G                            F
I'm still stuck somewhere between 
      G                         F
who I was and who I wanted to be


[Refrain]

C                    Am                       F
  my god it's coming out I can't stop feeling now
    G                                             
whatever made me wait this long
C                Am                      F
  I am still the same but in a different way
    G                            
whatever whatever it all remains
Suggest correction
Creating personal tab
Creating personal tab
You can edit any tab online and save it as your Personal.

You can edit, replace or remove any tab part or add personal notes – all changes will be seen only by you.

Personal tabs can be accessed anytime from any device, even offline.
Learn more »
Give kudos to tab author, rate the tab!
1 2 3 4 5
comments
print report bad tab
guest
Wanna post a correction for this tab? Suggest correction