Oops, an error
Loading. Please wait.

Needs Vs Facts chords

28 views 1 this week
no commentswrite comment
1 2 3 4 5
3 more votes to show rating
add to favorites
×
Save as Personal and add changes to this tab that will be seen only by you. Learn more ›
×
You can save this tab as Personal to edit and correct it or add notes. All changes will be seen only by you. Learn more »
launch autoscroll
font size
0
reset
transpose
0
reset
simplify chords
display chords
guitar tuner
edit
Autoscroll
slow
fast
+/-
esc
set tempo
stop
Author
Unregistered
Strumming
There is no strumming pattern for this song yet. and get +5 IQ
[Fig 1] (Intro)
   Cmaj7
e|---------------------|---------------------|
B|-------0---------0---|-------0---------0---|
G|---------0---------0-|---------0---------0-|
D|---0h2-------0h2-----|---0h2-------0h2-----|
A|-3---------3---------|-3---------3---------|
E|---------------------|---------------------|

 [Fig 2] (Intro/Verse)
   Bm   Em              Bm    Cmaj7
e|-7--x-7-(7)-x-7-x-x-|-2-2---0-(0)---------|
B|-7--x-8-(8)-x-8-x-x-|-3-3---0-(0)-----0---|
G|-7--x-9-(9)-x-9-x-x-|-4-4-0-0-(0)-------0-|
D|------9-(9)-x-9-x-x-|-4-4-0-2-(2)-0h2-----|
A|------7-(7)-x-7-x-x-|-2-2-0-3-(3)---------|
E|--------------------|---------------------|

e|---------------------|-----------|
B|-------0---------0---|-------0---|
G|---------0---------0-|---------0-|
D|---0h2-------0h2-----|---0h2-----|
A|-3---------3---------|-3---------|
E|---------------------|-----------|


[Verse]

Bm          Em                     Bm      Cmaj7
he came out on top though he had a bad day
not enough though, still bills to pay
Bm       Em                  Bm        Cmaj7
I really would like money to change my life
but it won't happen, no, no


[Chorus]

A                F#m          Bm      Dm7  C#m7
  I'll settle for the cheaper things, ah...
A                 F#m              Bm   Dm7 C#m7
  a long white cloud, a leaf, the wind, ah...
A            F#m      Bm    Dm7   
  to make my life liveable, understandable
C#m7
not just a waste of time
Bm                    A
more than a waste of time


[Verse]

he woke up again though he actually swore
he'd wake up with someone or not anymore
I really would like love to change my life
but it won't happen, no, no


[Interlude] Fig 1 + Fig 2


[Chorus]

A                F#m          Bm      Dm7  C#m7
  I'll settle for the cheaper things, ah...
A                 F#m              Bm   Dm7 C#m7
  a long white cloud, a leaf, the wind, ah...
A            F#m      Bm    Dm7   
  to make my life liveable, understandable
C#m7
not just a waste of time
Bm                    A
more than a waste of time



************************************

| x    Dead note
| (n)  Ghost note
| h    Hammer-on

************************************
Suggest correction
Creating personal tab
Creating personal tab
You can edit any tab online and save it as your Personal.

You can edit, replace or remove any tab part or add personal notes – all changes will be seen only by you.

Personal tabs can be accessed anytime from any device, even offline.
Learn more »
Give kudos to tab author, rate the tab!
1 2 3 4 5
comments
print report bad tab
guest
Wanna post a correction for this tab? Suggest correction