Oops, an error
Loading. Please wait.

Nowheres Clearer tab

13 views 1 this week
no commentswrite comment
1 2 3 4 5
3 more votes to show rating
add to favorites
×
Save as Personal and add changes to this tab that will be seen only by you. Learn more ›
×
You can save this tab as Personal to edit and correct it or add notes. All changes will be seen only by you. Learn more »
launch autoscroll
font size
0
reset
how to read this tab
guitar tuner
edit
Autoscroll
slow
fast
+/-
esc
set tempo
stop
[INTRO]

[Gitarr Matti]
   Fmaj7                    Am                    G
   
[Gitarr Jari]
                                                                        
E|--0--0----0--0----0----|---------------------|--------3--5----------|
B|--1--1----1--1----1----|-------3--5----------|-----3----------------|
G|--2--2----2--2----2----|----4----------------|--4-------------------|
D|--3--3----3--3----3----|---------------------|----------------------|
A|--3--3----3--3----3----|---------------------|----------------------|
E|--1--1----1--1----1----|---------------------|----------------------|


[VERSE]

  (F)                        (G/B)       (C)            (Am)  
e|-----3--1--0-------------|--------------------------|--------------------0-----|
B|----------------1--0--1--|-----------3--------1--0--|--------1--0--0h1-3-------|
G|-------------------------|-----0h-2-----------------|--------------------------|
D|--3----------------------|-----------------2--------|-----2--------------------|
A|-------------------------|--2-----------3-----------|--0-----------------------|
E|-------------------------|--------------------------|--------------------------|

  (D)       (C)                                   
e|--2---3-------3------|
B|----3-----------1----|
G|------------0--------|
D|---------------------|
A|----------3----------|
E|---------------------|

[Other]

[Intro]
Fmaj7 Am G 

[Verse]
F G/B C Am D C

[Refräng]
A         C#m D Bm     E  D     

[Stick]
Fmaj7 C Am

************************************

| h  Hammer-on

************************************

[Lyrics]

[Verse]
a kind scene 
I always wanted to show you 
but it's too late 
now lost in a state of being 
and a way of seeing 
that makes it hard to relax 
as we both pretend you're not really 
pushing yourself away 
all words collapse, 
untrue but meaning well 
I'd say goodbye becomes you 

[Chorus]
nowhere's clearer, 
I doubt nowhere's clearer tonight 
I'm out of sight 
and I'll turn deeply, deeply unkind
just to spare what's still alive 
in my heart 

[Verse]
I could hear you sob and moan 
for someone you actually 
loved to come home 
or to reappear in a good dream 
stayed away until morning came 
saw all them stars and satellites 
slowly fade into pale blue 
as if ashamed 
of what everyday does to you 

[Chorus]
nowhere's clearer, 
I doubt nowhere's clearer tonight 
I'm sorry, alright 
it's me again, 
me against the world against you 
I will lose too 

[Stick]
trust and betrayals 
tools to delay us 
getting away with all our great things 
all the little evil doings 
we're falling off 
maps and mountains
Suggest correction
Creating personal tab
Creating personal tab
You can edit any tab online and save it as your Personal.

You can edit, replace or remove any tab part or add personal notes – all changes will be seen only by you.

Personal tabs can be accessed anytime from any device, even offline.
Learn more »
Give kudos to tab author, rate the tab!
1 2 3 4 5
comments
print report bad tab
guest
Wanna post a correction for this tab? Suggest correction