Oops, an error
Loading. Please wait.

Same Old C-O tab

13 views 1 this week
no commentswrite comment
1 2 3 4 5
3 more votes to show rating
add to favorites
×
Save as Personal and add changes to this tab that will be seen only by you. Learn more ›
×
You can save this tab as Personal to edit and correct it or add notes. All changes will be seen only by you. Learn more »
launch autoscroll
font size
0
reset
how to read this tab
guitar tuner
edit
Autoscroll
slow
fast
+/-
esc
set tempo
stop
Author
Unregistered
[Intro]

   Am    G                  Dm        G
e|-0-0-0-3-(3)------------|---1p0-----3-(3)------------|
B|-1-1-1-0-(0)----0-0-1p0-|-------3---0-(0)----0-0-1p0-|
G|-2-2-2-0-(0)----0-0-0-0-|---------0-0-(0)----0-0-0-0-|
D|-2-2-2-0-(0)------------|-0---------0-(0)------------|
A|-0-0-0-2-(2)------------|-----------2-(2)------------|
E|-------3-(3)--3---------|-----------3-(3)--3---------|

   Dm        G                F         Am
e|---1p0-----3-(3)----------|-1---1-0---0------0-0-|
B|-------3---0-(0)----------|-1-------1-1------1-1-|
G|---------0-0-(0)----------|-2-2-------2------2-2-|
D|-0---------0-(0)--------0-|-3---------2--0h2-2-2-|
A|-----------2-(2)--2-0h2---|-3---------0------0-0-|
E|-----------3-(3)--3-------|-1--------------------|

   F         Am          G
e|-1---1-0---0-------0-|-3--3-3-(3)----3---|-3--3--3-(3)---3--------|
B|-1-------1-1-------1-|-0--0-0-(0)------0-|-0--0--0-(0)---0--------|
G|-2-2-------2-------2-|-0--0-0-(0)------0-|-0--0--0-(0)---0--------|
D|-3---------2---0h2-2-|-0--0-0-(0)-0------|-0--0--0-(0)---0-0h2----|
A|-3---------0-0-----0-|-2--2-2-(2)--------|-2--2--2-(2)---2--------|
E|-1-------------------|-3--3-3-(3)--------|-3--3--3-(3)-3-3--------|


[Verse]

    Am                  F                   Em
e|--0---0-(0)-0-----0-|-1---1-(1)---------|-0---0-0-------0----|
B|o-1---1-(1)-1-----1-|-1---------1-----1-|-0---0-0-------0----|
G|--2---2-(2)-2-----2-|-2-----------0h2---|-0---0-0------------|
D|--2---2-(2)-2-0h2-2-|-3-----------------|-2---2-2---0h2------|
A|o-0---0-(0)-0-----0-|-3-----------------|-2---2-2------------|
E|--------------------|-1-----------------|-0---0-0-0----------|

   1.               2.
   F      G                         2/4
e|-1--1---3--3---||-1--1---3--3--3-|-3--3-3-3-3--|
B|-1----1-0--0--o||-1----1-0--0--0-|-0--0-0-0-0-o|
G|-2------0--0---||-2------0--0--0-|-0--0-0-0-0--|
D|-3------0--0---||-3------0--0--0-|-0--0-0-0-0--|
A|-3------2--2--o||-3------2--2--2-|-2--2-2-2-2-o|
E|-1------3--3---||-1------3--3--3-|-3--3-3-3-3--|


************************************

| (n)  Ghost note
| h    Hammer-on
| p    Pull-off
| o    

************************************

[Chords]

[Intro] Am G Dm G Dm G F Am F Am G

[Vers] Am F Em F G 

[Refräng] C   F   G F   G F
          C   Dm  G F   G F   Em    F G


************************************

[Lyrics]


[Verse]

should have left a note should have tried
to strike that chord of hope that you've talked so
much about or at least thank you for
letting me sleep on your couch again
thank you friend

[Refrain]

  you're a little like me
  you're the centre of the periphery
  I'm a little like you
  the schizophrenic doubt in all that you do

[Verse]

a trust that broke a worn out belief
a cruel joke without the comic relief well
you've seen all of this 
no one's is immune to what goes on
you should know awaited bum

[Refrain]

  you're a little like me
  and I'm so sorry
  a sorry deadringer
  of who I used to be
  of everything I tried to be
  
  I'm a little like you
  the trite beauty of the view
  I'm a little like you
  the light within is also in you
  I saw it in you

            
            
Suggest correction
Creating personal tab
Creating personal tab
You can edit any tab online and save it as your Personal.

You can edit, replace or remove any tab part or add personal notes – all changes will be seen only by you.

Personal tabs can be accessed anytime from any device, even offline.
Learn more »
Give kudos to tab author, rate the tab!
1 2 3 4 5
comments
print report bad tab
guest
Wanna post a correction for this tab? Suggest correction