Oops, an error
Loading. Please wait.

A Hard Days Night Tab

version 1
version 1

Album

Whole song

Interactive

253,157 views 165 this week
7 commentsread comments
1 2 3 4 5
x 17
add to favorites
launch autoscroll
font size
0
reset
how to read this tab
guitar tuner
backing track
0:00
0:00
×
Best way to learn
"A Hard Days Night"
Autoscroll
slow
fast
+/-
esc
set tempo
stop
A Hard Days Night
Album

1)      A hard day's night
2)      I should have known better
3)      If I fell
4)      I'm happy just to dance with you
5)      And I love her
6)      Tell me why
7)      Can't buy me love
8)      Any time at all
9)      I'll cry instead
10)     Thing we said today
11)     When I get home
12)     You can't do that
13)     I'll be back


1. A HARD DAY'S NIGHT

G  - 3 3 0 0 2 3
C9 - 3 3 0 0 3 0


[Verse]

It's been A [G]Hard [C9]Day's [G]Night and I've been [F]working like a [G]dog
It's been A Hard [C9]Day's [G]Night I should be [F]sleeping like a [G]log
But when I [C]get home to you I find the [D]things that you do will
make me [G]feel [C9]al---[G]right
{eoc}

You know I work all day to get you money to buy things
And It's worth it just to hear you say you're gonna give me ev'rything
So why I love to come home 'Cause when I get you alone you know I'll be O.K.

[Bridge]

     When I [Bm]home [Em]ev'rything seems to be al[Bm]right
     When I'm [G]home [Em]feeling you holding me [C]tight, [D]tight,yeah

[Chorus]

[Solo]

So why I love to come home 'Cause when I get you alone you know I'll be O.K.

[Bridge]

[Chorus]


You know I [G]feel [C9]al---[G]right



2. I SHOULD HAVE KNOWN BETTER


[Harmonica intro]

   C    G7    C    G7    C    G7    C    G7

   C    G7    C    G7               C             G7         C     G7
   I - - - - - - should have known better with a girl like  you,

                 C          G7           Am
   That I would love everything that you do,

          F            G7         C    G7    C    G7
   And I do, hey, hey, hey, and I do.            Whoa, ooh

   C    G7    C   G7        C            G7        C     G7
   I - - - - - -  never realized what a kiss could be,

              C    G7        Am
   This could only happen to me,

              F             E7      Am
   Can't you see, can't you see?

                F               C        E7     Am
   That when I tell you that I love you, oh,

                 F               C                              F
   You're gonna say you love me too - oo - oo - oo - oo, oho,

              G7             C Am   F              G7               C   G7  C
   And when I ask you to be mine,     you're gonna say you love me too.

    G7         C    G7    C    G7            C              G7       C     G7
   So - o - o, I - - - - - - should have realized a lot of things before,

               C                 G7      Am
   If this is love you've gotta give me more,

            F              G7            C      G7     C     G7
   Give me more, hey, hey, hey, give me more.


[Solo]

     C    G7    C    G7     C     G7     C     G7

     C     G7    Am       F      G7      C      G7     C     G7

   C    G7    C   G7        C            G7        C     G7
   I - - - - - -  never realized what a kiss could be,

              C    G7        Am
   This could only happen to me,

              F             E7      Am
   Can't you see, can't you see?

                F               C        E7     Am
   That when I tell you that I love you, oh,

                 F               C                              F
   You're gonna say you love me too - oo - oo - oo - oo, oho,

              G7             C Am   F              G7               C   G7  C
   And when I ask you to be mine,     you're gonna say you love me too.

        G7      C    G7   C       G7      C    G7   C
   You love me too,          you love me too.


3. IF I FELL                     

                     Ebm
                If I fell in love with you
                          D
                Would you promise to be true
                         Db Bbm
                And help me understand
                            Ebm
                'Cause I've been in love before
                    D
                And found that love is more
                     Em           A
                Than just holding hands

                     D    Em F#m      Em
                If I give my heart to you
                  A                     D  Em F#m
                I must be sure from the very  start
                     Em        A                 D   Em  A
                That you would love me more than her

                     D     Em F#m
                If I trust in you
                   Em            A
                Oh please, don't run and hide
                      D   Em  F#m
                If I love you too
                   Em            A                  D9
                Oh please, don't hurt my pride like her
                                           G
                Cause I couldn't stand the pain
                    Gm                        D           A7
                And I would be sad if our new love was in vain


                     D    Em     F#m
                So I hope you'll see
                     Em      A
                That I would love to love you
                D   Em   F#m      Em
                And that she will cry
                     A                 D
                When she learns we are two
                     Gm      C         D
                If I fell in love with you


4. I'M HAPPY JUST TO DANCE WITH YOU

     EADGBE

G+   3X1003

C6   X32210

open 000000

Am  Dm  E      Am  Dm  E

            Am
Before this dance is through
             Dm     E
I think I'll love you too,
       Dm             G7         C    G7
I'm so happy when you dance with me.
     C               Am7            Dm7  G7
I do want to kiss or hold your hand,
        C             Am7        Dm7  G7
If it's funny try and understand.
         F                              C   Am7
There is really nothing else I'd rather do
           Dm            G+         C    G
'Cause I'm happy just to dance with you.
        C              Am7            Dm7  G7
I don't need to hug or hold you tight,
       C                Am7           Dm7  G7
I just wanna dance with you all night.
        F                                    C   Am7
In this world there's nothing I would rather do,
           Dm            G+         C
'Cause I'm happy just to dance with you.


[Chorus]

(open)  Am7              Dm   E

Just to dance with you, (oh   oh)

   Am                 Dm   E
Is everything I need (oh   oh)

Before this dance is through,

I think I'll love you too,

I'm so happy when you dance with me.

If somebody tries to take my place,

Let's pretend we just can't see his face.

In this world there's nothing I would rather do,

Cause I'm happy just to dance with you

[Chorus]

Am7          Dm             G+        Am     Dm   E

     I've discovered I'm in love with you   (oh   oh)

          Dm            G+         Am

Cause I'm happy just to dance with you

Dm7  E    Dm   G7   C6

oh   oh   oh   oh   oh!


5. AND I LOVE HER


  [Intro]
               F#m             E6              F#m
e|-------------------------------------------------------------|
B|-------------------------------------------------------------|
G|-------------------------------------------------------------|
D|-------------------------------------------------------------|
A|------7--6--4---------7--6--4---------7--6--4----------------|
E|---7---------------7---------------7-------------------------|


[Verse]

F#m        C#m           F#m           C#m
I give her all my love    That's all I do

F#m        C#m             A             B7
And if you saw my love    You'd love her too

       E
And I love her


[Verse]

      F#m                          C#m
e|----------9--------------9------------9-----------9----------|
B|------10-----10------10-----10-----9-----9-----9-----9-------|
G|--11-------------11-------------9-----------9----------------|
D|-------------------------------------------------------------|
A|-------------------------------------------------------------|
E|-------------------------------------------------------------|
           She    gives  me       every     thing

      F#m                          C#m
e|----------9--------------9------------9-----------9----------|
B|------10-----10------10-----10-----9-----9-----9-----9-------|
G|--11-------------11-------------9-----------9----------------|
D|-------------------------------------------------------------|
A|-------------------------------------------------------------|
E|-------------------------------------------------------------|
           And     tender        ly

      F#m                          C#m
e|----------9--------------9------------9-----------9----------|
B|------10-----10------10-----10-----9-----9-----9-----9-------|
G|--11-------------11-------------9-----------9----------------|
D|-------------------------------------------------------------|
A|-------------------------------------------------------------|
E|-------------------------------------------------------------|
           The     kiss my       lover     brings

      A                           B7
e|---------9-------------9--------------11---------------------|
B|-----10-----10-----10-----10------10------10-----------------|
G|--9-------------9-------------11-----------------------------|
D|-------------------------------------------------------------|
A|-------------------------------------------------------------|
E|-------------------------------------------------------------|
          She    brings to      me

                      E6
e|----------11------------9-----------9-----------9------------|
B|------10------10-----9-----9-----9-----9-----9-----9---------|
G|--11--------------9-----------9-----------9-----------9------|
D|-------------------------------------------------------------|
A|-------------------------------------------------------------|
E|-------------------------------------------------------------|
       And  I  love    her


[Middle]

C#m          B      C#m        G#m
A love like ours    could never die
C#m       G#m            B7
As long as I   have you near me


[Verse]

F#m             C#m               F#m         C#m
Bright are the stars that shine   Dark is the sky

F#m         C#m             A          B7
I know this love of mine   Will never die

        E
And I love her


[Solo]

      Gm       Dm           Gm       Dm            Gm       Dm
e|------------------------------------------------------------------------|
B|------------------------------------------------------------------------|
G|-----------9--7/10---------------9--97-----------------9--7/10----------|
D|--5--7--8---------------5--7--8----------------5--7--8------------------|
A|------------------------------------------------------------------------|
E|------------------------------------------------------------------------|

      Bb        C7               F                     Gm
e|------------------------------------------------------------------------|
B|------------------------------------------------------------------------|
G|--10--7-----------------------------------------------------------------|
D|---------8--7--75--------------/7---------------------------------------|
A|-----------------------5--3--5--------3---------------------------------|
E|------------------------------------------5--3--1--1/3------------------|


[Verse]

(guitar plays arpeggios shown for verse 2, one fret higher)
Gm              Dm                Gm          Dm
Bright are the stars that shine   Dark is the sky

Gm          Dm              Bb         C7
I know this love of mine   Will never die

        F
And I love her


  [Ending]
               Gm               F              Gm             D  (surprise!)
e|----------------------------------------------------------------|
B|----------------------------------------------------------------|
G|----------------------------------------------------------------|
D|----------------------------------------------------------------|
A|------8--7--5---------8--7--5---------8--7--5--------8--7--5----|
E|---8---------------8---------------8--------------8-------------|


6. TELL ME WHY


[Chorus]

G7       C    Am            Dm7              G7    Dm7      C    Am  Dm7
Tell me why - -  you cried,     and why you lied - -    to me.
G7       C    Am            Dm7              G7    Dm7     C     G7
Tell me why - -  you cried,     and why you lied - -    to me.


[Verse]

        C                    Am            Dm7                  G7
Well I gave you everything I had, but you left me sitting on my own.
        C                      Am         Dm7                     G7
Did you have to treat me oh so bad, all I do is hang my head and moan.


[Chorus]

         C    Am            Dm7              G7    Dm7      C    Am  Dm7
Tell me why - -  you cried,     and why you lied - -    to me.
G7       C    Am            Dm7              G7    Dm7     C      G7
Tell me why - -  you cried,     and why you lied - -    to me.


[Verse]

         C                           Am            Dm7                G7
If it's something that I've said or done, tell me what and I'll apologize.
        C                      Am          Dm7                     G7
If you don't I really can't go on, holding back these tears in my eyes.


[Chorus]

         C    Am            Dm7              G7    Dm7      C    Am  Dm7
Tell me why - -  you cried,     and why you lied - -    to me.
G7       C    Am            Dm7              G7    Dm7     C     C7
Tell me why - -  you cried,     and why you lied - -    to me.


[Bridge]

       F7                                    G7
Well I beg you on my bended knees, if you'll only listen to my pleas.
         Am
Is there anything I can do,
          Dm                       G7               C       G7
'Cause I really can't stand it I'm so in love with you.


[Chorus]

         C    Am            Dm7              G7    Dm7      C    Am  Dm7
Tell me why - -  you cried,     and why you lied - -    to me.
G7       C    Am            Dm7              G7           Am   Ab  G7  C
Tell me why - -  you cried,     and why you lied - -  to  me.


7. CAN'T BUY ME LOVE
 

[Intro]

              Em    Am    Em  Am
Can't buy me love,      love,
              Dm7  G7
Can't buy me love.


[Verse]

     C7
I'll buy you a diamond ring my friend, if it makes you feel alright.
     F7                                 C7
I'll get you anything my friend, if it makes you feel alright.
      G7              F7                                       C7
Cause I don't care too much for money, money can't buy me love.

      C7
I'll give you all I've got to give, if you say you love me too.
  F7                                     C7
I may not have a lot to give but what I got I'll give to you.
G7              F7                                   C7
I don't care too much for money, money can't buy me love.


[Chorus]

              Em  Am     C7
Can't buy me love,    everybody tells me so.
              Em  Am Dm7         G7
Can't buy me love,   no, no, no, no.


[Verse]

 C7
Say you don't need no diamond rings and I'll be satisfied.
F7                                             C7
Tell me that you want the kind of things that money just can't buy.
G7              F7                                   C7
I don't care too much for money, money can't buy me love.


[Solo]

C7    F7    C7    G7   F7     C7


[Chorus]

             Em  Am     C7
Can't buy me love,    everybody tells me so.
             Em  Am   Dm7         G7
Can't buy me love,    no, no, no, no.


[Verse]

C7
Say you don't need no diamond rings and I'll be satisfied.
F7                                             C7
Tell me that you want the kind of things that money just can't buy.
G7              F7                                   C7
I don't care too much for money, money can't buy me love.


[Outro]

              Em  Am    Em Am
Can't buy me love,     love,
             Dm7  G7  C7
Can't buy me love, oh.

solo: They doubled tracked this, and spliced different takes together,
      so its impossible to play all you hear on the record with one
      guitar. The following tab represents the dominant lead at each
      point (it switches between guitars to best represent which is
      "loudest").


e|-----------------------------------------------------------------|
B|----------8-------8--------8-------8-----------------------------|
G|------8--10b(12)-10b(12)--10b(12)-10b(12)b10--8-----8------------|
D|--10---------------------------------------------10--------------|
A|-----------------------------------------------------------------|
E|-----------------------------------------------------------------|


e|-----------------------------------------------------------------|
B|--8-------8--------8-------8-------------------------------------|
G|-10b(12)-10b(12)--10b(12)-10b(12)b10--8--------------------------|
D|-----------------------------------------10--8-------------------|
A|------------------------------------------------10--8------------|
E|-------------------------------------------------------11--------|


e|-----------------------------------------------------------------|
B|-----------------------8-------8--------8-------8----------------|
G|--8--8--8--8--8--8----10b(12)-10b(12)--10b(12)-10b(12)b10--8-----|
D|--7--7--7--7--7--7-------------------------------------------10--|
A|--8--8--8--8--8--8-----------------------------------------------|
E|-----------------------------------------------------------------|


e|-------------------------------------------------------------------|
B|-------------------------------------------------------------------|
G|-------------------------------------------------------------------|
D|----------------------------------------8--------------------------|
A|--8/10--8/10--108--8/108--6-----8/10----10/8--6--------------------|
E|-------------------------------8-------------------8--6--8---------|


8. ANY TIME AT ALL


Chorus: (This is Figure 1)

  Any time at

  Bm                                 D
  all                                                   Any time at
e|E|---------------------------------|---------2----------------------|
B|---------------------------------|---------3----------------------|
G|---------------------------------|---------2----------------------|
D|-----------------------------0---|---------0----------------------|
A|-2-------------------0---2-------|--------------------------------|
E|---------------------------------|--------------------------------|
   ^       ^       ^       ^         ^       ^       ^       ^
   A
  all                                                   Any time at
E|---------------------------------|--------------------------------|
B|---------2-------3---2-------2---|--------------------------------|
G|---------2-------2---2-------2---|--------------------------------|
D|---------2-------2---2-------2---|---------------------2---3---4--|
A|-0-----------0---------------0---|--------------------------------|
E|---------------------------------|--------------------------------|
   ^       ^       ^       ^         ^       ^       ^       ^
  Bm                                G                  A7
  all       All you've got to do is call          And I'll be there
  Any time at
E|---------------------------------|--------------------------------|
B|---------------------------------|--------------------------------|
G|---------------------------------|--------------------------------|
D|---------------------------------|--------------------------------|
A|---------------------------------|--------------------------------|
E|---------------------------------|--------------------------------|
   ^       ^       ^       ^         ^       ^       ^       ^
  (Fill 1)
   D
E|-3-------2-------------------2---|--------------------------------|
B|-----------------5---3-----------|--------------------------------|
G|---------------------------------|--------------------------------|
D|---------------------------------|--------------------------------|
A|---------------------------------|--------------------------------|
E|---------------------------------|--------------------------------|
   ^       ^       ^       ^         ^       ^       ^       ^

   
[Verse]

D                 F#m          Bm                      Gm/Bb
  If you need somebody to love   Just look into my eyes
D/A               A                  D                    F#m
I'll be there to make you feel right   if you're feeling sorry and sad
Bm                      Gm/Bb  D/A                      A
  I'd really sympathize       Don't you be sad    Just call me tonight
D  (Fill 1)
             Any time at


[Chorus]

(With Figure 1)

Bm        D                    A
all               Any time at all            Any time at
Bm                             G            A7           D
all   All you've got to do is call     And I'll be there


[Verse]

D                 F#m          Bm                      Gm/Bb
  If the sun has faded away   I'll try to make it shine
D/A                A           D                F#m
There is nothing I    won't do   if you need a shoulder to cry on
Bm                       Gm/Bb  D/A                   A
  I hope it will be mine        Call me tonight  And I'll come to you
D  (Fill 1)
             Any time at


[Chorus]

(With Figure 1)

Bm        D                    A
all               Any time at all            Any time at
Bm                             G            A7           D
all   All you've got to do is call     And I'll be there


[Piano Solo]

A7      Bm7/A       A7             A7      Bm7/A      A7

G                   A7             G                  A7

D
            Any time at


[Chorus]

(With Figure 1)

Bm        D                    A
all               Any time at all            Any time at
Bm                             G            A7
all   All you've got to do is call     And I'll be there
D
                  Any time at


[Coda]

G                              A                   D   (Fill 1)
all   All you've got to do is call   And I'll be there


End with this chord:
  D
e|E|-10-----------------------------|
B|-10-----------------------------|
G|-11-----------------------------|
D|-12-----------------------------|
A|--------------------------------|
E|--------------------------------|
   ^       ^       ^       ^


9. I'LL CRY INSTEAD


    C9:   x32033     G: 320033

              G       C9       G     C9    G    C9  G   C9
     I've got every reason on earth to be mad,
         G       C9      G     C9     D
     Cos I just lost the only girl I had
        C7
     If I could see you now, I'd try to make you say it somehow
            G               D      G
     But I can't, so I'll cry instead.

     I got a chip on my shoulder that's bigger than my feet
     I can't talk to people that I meet
     If I could get my way, I'd get myself locked up today
     But I can't, so I'll cry instead.

                  Bm
     Don't wanna cry when there's people there
             A
     I get shy when they start to stare,
           D                          E7               A7       D7
     I'm gonna hide myself away, but I'll come back again some day

     And when I do you better hide all the girls
     I'm gonna break their hearts all round the world
     Yes I'm gonna break 'em in two,
     and show you what your lovin myn can do
     Until then I'll cry instead.


10. THINGS WE SAID TODAY


   Am        Em         Am  Em     Am       Em      Am
1. You  say  you will  love me,    if   I   have to go.
2. You  say  you'll be mine girl, 'till the end of time.
3. 'nough to make you  mine girl,  be  the  only    one.


    Am         Em      Am  Em     Am      Em       Am
1. You'll be  thinking of  me,   somehow  I  will know.
2. These days such a  kind girl, seems so hard to find.
3. Love  me   all the time girl, we'll go on  and  on.


    C                  C7        F                     Bb
1. Someday when  I'm  lonely,  wishing you weren't so far away.
2. Someday when we're dreaming, deep in love, not  a  lot to say.
3. Someday when we're dreaming, deep in love, not  a  lot to say.


    Am      Em     Am  Em    Am       Em     Am
1. Then I  will re-mem-ber things we said today.
2. Then we will re-mem-ber things we said today.
3. Then we will re-mem-ber things we said today.


     A                D           B7              E7                A
2,3. Me I'm just the lucky kind, love to hear you say that love is love,

                    D             B7             Bb7
2,3. And though we may be blind, love is here to stay and that's e--

(Repeat 3rd verse)



12. YOU CAN'T DO THAT


[Intro]

e|----------------------|
B|----------------------|
G|----------------------|
D|---1--0-1---1-1---0-1-|
A|-2--2-----2-----2-----|
E|----------------------|


        D
I got something to say that might cause you pain,


If I catch you talking to that boy again,

           G                           D
I'm gonna let you down, and leave you flat.

           A7             G                D
Because I told you befo--ore you can't do that.

               D
Well it's the second time I caught you talking to him,


Do I have to tell you one more time I think it's a sin.

              G                           D
I think I'll let you down, and leave you flat.

           A7             G                D
Because I told you befo--ore you can't do that.

            F#7    Bm         Em              F#m       D
Everybody's gree--een, 'cause I'm the one who won your love,

              F#7   Bm       Em                       F#m
But if they'd see--een, you talking that way, they'd laugh in my face.

      D
So please listen to me if you wanna stay mine,


I can't help my feelings I go out of my mind,

           G                           D
I'm gonna let you down, and leave you flat.

           A7             G                D
Because I told you befo--ore you can't do that.


[Instrumental]

same as verse)
    D         G       D       A7     G     D


            F#7    Bm         Em              F#m       D
Everybody's gree--een, 'cause I'm the one who won your love,

              F#7   Bm       Em                       F#m
But if they'd see--een, you talking that way, they'd laugh in my face.

      D
So please listen to me if you wanna stay mine,


I can't help my feelings I go out of my mind,

           G                           D
I'm gonna let you down, and leave you flat.

           A7             G                D
Because I told you befo--ore you can't do that.

           A7             G                D
Because I told you befo--ore you can't do that.

                                                You Cant Do That   Beatles


ALTERNATE G TO G7                     TIME=127
G    G7
I got something that might cause you pain,
G    G7
If I catch you talking to that boy again
  C11                          G  G7
I'm gonna let you down, and leave you flat
          D9                C11             G    G7  D9
Because I told you before,  oh you can't do that
G    G7
Well it's the second time I caught you talking to him,
G    G7
Do I have to tell you one more time it's a sin
         C11                             G  G7
I think I'll let you down, and leave you flat
          D9                C11             G    G7
Because I told you before, oh, you can't do that
            B7    Em         Am              Bm       G  G7
Everybody's gree--en, 'cause I'm the one who won your love,
              B7    Em      Am                       D           D9
But if they'd see---en, you talking that way, they'd laugh in my face
      G   G7
So please listen to me if you wanna stay mine,
G    G7
I cant help my feelings I go outta my mind
         C11                         G   G7
I'm gonna let you down, and leave you flat
          D9                C11           G     G7   D9
Because I told you before, oh you cant do that
G   G7 ....
INSTRUMENTAL (SAME AS VERSE)
G    G7
[Instrumental]
          D9                C11             G    G7
[Instrumental]
          D9                C11             G    G7
[Instrumental]
            B7    Em         Am              Bm       G  G7
Everybody's gree--en, 'cause I'm the one who won your love,
              B7    Em      Am                       D           D9
But if they'd see---en, you talking that way, they'd laugh in my face
      G    G7
So please listen to me if you wanna stay mine,
G   G7
I cant help my feelings I go outta my mind
          C11                         G   G7
I'm gonna let you down, and leave you flat
          D9                 C11          G     G7    D9
Because I told you before, oh you cant do that
G   G7
END ON G


    C11(add5) D9    B7    Em
e| --3---------5-----7-----7-|
B| --3---------5-----7-----8-|
G| --3---------5-----8-----9-|
D| --5---------4-----7-----9-|
A| --3---------5-----9-----7-|
E|---3---------X-----7-----7-|

Note:  Suggest you use barre chords on the chorus, beginning with the B7 on
the 7th fret then change fingering to Em on same 7th fret, etc.



13. I'LL BE BACK
 
  Riff 1:
             A               Am
e|------------------------------|
B|-------5---2------------5---1-|
G|----4------2---------4------2-|
D|-4---------2------4---------2-|
A|------------------------------|
E|------------------------------|

A       Am          C/G               Fmaj7       riff2:
   You know if you break my heart I'll go,      |------------|
     E             A  (riff 2)                  |-------5--2-|
But I'll be back again.                         |----4-----2-|
    Am         C/G          Fmaj7               |-4--------2-|
Cos I told you once before goodbye,             |------------|
    E             A  (riff 2)                   |------------|
But I came back again.


           F#m
I love you so,
                 Bm
I'm the one who wants you,
                      E
Yes I'm the one who wants you,
 D  E   D  E
Oh oh, Oh oh.


   Am              C/G           Fmaj7
Oh you could find better things to do,
          E              A  (riff 2)
Than to break my heart again
      Am          C/G             Fmaj7
This time I will  try to show that I'm
      E           A  (riff 2)
Not trying to pretend.


Bm                        C#m
I thought that you would realise,
          F#m
That if I ran away from you,
     B7
That you would want me too,
    Bm             E
but I got a big surprise
D  E   D  E
Oh oh, Oh oh


   Am              C/G           Fmaj7
Oh you could find better things to do,
          E              A  (riff 2)
Than to break my heart again
      Am          C/G             Fmaj7
This time I will  try to show that I'm
      E           A  (riff 2)
Not trying to pretend.


        F#m
I wanna go,
               Bm
But I hate to leave you,
                     E
You know I hate to leave you,
 D  E   D  E
Oh oh, Oh oh.


   Am           C/G                Fmaj7
Oh you, if you break my heart I'll go,
     E             A  (riff 1 and fade)
But I'll be back again.
Suggest correction
comments
print report bad tab
7 comments total. Showing first comments.
0 reply
the fallen 10 Jun 11, 2006 06:38 AM

Good job, man. Seems to me like it's all pretty much right. I think you're missing a solo in the first song, though.

0 reply
Sgt. Pepper 87 Aug 10, 2006 09:46 AM

The opening chord to 'A Hard Day;s Night' is G7sus4
-3
-3
-5
-3
-5
-3

0 reply
THEknowitall17 10 Apr 10, 2007 11:44 AM

This tab book is not accurate only and I love her is accurate except 4 the intro plus solo

guest
You may want to rate the tab now too:
select rating
Wanna post a correction for this tab? Suggest correction