Oops, an error
Loading. Please wait.

A Hard Days Night Bass Tab

version 4
version 4

Interactive

38,918 views 57 this week
4 commentsread comments
1 2 3 4 5
excellent!
x 19
add to favorites
launch autoscroll
font size
0
reset
guitar tuner
Tab Pro tools
  • play this tab
  • loop segment
  • change instrument
  • show fretboard
  • metronome
×
Best way to learn
"A Hard Days Night"
Autoscroll
slow
fast
+/-
esc
set tempo
stop
Contributor
A Hard Day's Night
The Beatles
Written by John Lennon and Paul McCartney; released on single "A Hard Day's 
Night / Things We Said Today" and on album "A Hard Day's Night"

The title song for their first film. A great one :-)

Intro:
G|7------ ------- ------- -------|------- ------- ------- -------|
D|-------------------------------|-------------------------------|
A|5------------------------------|-------------------------------|
E|-------------------------------|-------------------------------|
                                                     It's been a

Verse:
G|------- ------- ------- -------|------- ------- ------- -------|
D|-------------------------------|-------------------------------|
A|----------------3---3---3---3--|-------------------------------|
E|3-------3----------------------|3-------3-------3---3---3---3--|
  hard            day's       night,                  and I've been


G|------- ------- ------- -------|------- ------- ------- -------|
D|-------------------------------|-------------------------------|
A|-------------------------------|------------------------5---5--|
E|1-------1-------1---1---1---1--|3-------3-------3---3----------|
  working             like a  dog                    It's been a


G|------- ------- ------- -------|------- ------- ------- -------|
D|-------------------------------|-------------------------------|
A|----------------3---3---3---3--|-------------------------------|
E|3-------3----------------------|3-------3-------3---3---3---3--|
  hard            day's       night,                  I should be


G|------- ------- ------- -------|------- ------- ------- -------|
D|-------------------------------|-------------------------------|
A|-------------------------------|-------------------------------|
E|1-------1-------1---1---1---2--|3-------3-------3---3---3---3--|
  sleeping            like a  log                     But when I


G|------- ------- ------- -------|------- ------- ------- -------|
D|-------------------------------|-------------------------------|
A|3-------3-------3-------3---4--|5-------5-------5---5---5---5--|
E|-------------------------------|-------------------------------|
  get home to you,    I  find the things  you do      will make me
                                      that

G|------- ------- ------- -------|------- ------- ------- -------|
D|-------------------------------|-------------------------------|
A|----------------3---3---3---3--|--------5-------5---5---5---5--|
E|3-------3----------------------|3------------------------------|
  feel            all         right                   You know I

Verse:
G|------- ------- ------- -------|------- ------- ------- -------|
D|-------------------------------|-------------------------------|
A|----------------3---3---3---3--|-------------------------------|
E|3-------3----------------------|3-------3-------3---3---3---3--|
  work            all         day                     to  get you


G|------- ------- ------- -------|------- ------- ------- -------|
D|-------------------------------|-------------------------------|
A|-------------------------------|----------------5---5---5---5--|
E|1-------1-------1---1---1---2--|3-------3----------------------|
  money,              to  buy you things                  And it's


G|------- ------- ------- -------|------- ------- ------- -------|
D|-------------------------------|-------------------------------|
A|----------------3---3---3---3--|-------------------------------|
E|3-------3----------------------|3-------3-------3---3---3---3--|
  worth   just to hear you    say                     you're
      it                                                  gonna

G|------- ------- ------- -------|------- ------- ------- -------|
D|-------------------------------|-------------------------------|
A|-------------------------------|-------------------------------|
E|1-------1-------1---1---1---2--|3-------3-------3-------3------|
  give me             every - thing                   So  why on


G|------- ------- ------- -------|------- ------- ------- -------|
D|-------------------------------|-------------------------------|
A|3-------3-------3---3---3---3--|5-------5-------5---5---5---5--|
E|-------------------------------|-------------------------------|
  earth   I   moan,   cause   I   get you a - lone    you know I
      should              when

G|------- ------- ------- -------|------- ------- ------- -------|
D|-------------------------------|-------------------------------|
A|----------------3---3---3------|-------------------------------|
E|3-------3-------------------3--|3-------3-------3---3---3---3--|
  feel            O.          K.
                                                  When I'm    home,
Bridge:
G|------- ------- ------- -------|------- ------- ------- -------|
D|-------------------------------|-------------------------------|
A|2-------2-------2-------2------|-------------------------------|
E|-------------------------------|0-------0-------0-------0------|
                                  everything  seems   to  be


G|------- ------- ------- -------|------- ------- ------- -------|
D|-------------------------------|-------------------------------|
A|2-------2-------2-------2------|2-------2-------2-------2------|
E|-------------------------------|-------------------------------|
  right                                           When I'm    home,


G|------- ------- ------- -------|------- ------- ------- -------|
D|-------------------------------|-------------------------------|
A|-------------------------------|-------------------------------|
E|3-------3-------3-------3------|0-------0-------0-------0------|
                                  feeling you hol  -  ding me


G|------- ------- ------- -------|------- ------- ------- -------|
D|-------------------------------|-------------------------------|
A|3-------3-------3-------3------|5-------5-------5-------5------|
E|-------------------------------|-------------------------------|
                                                     It's been a
  tight,                      tight,          yeah!
Verse:
G|------- ------- ------- -------|------- ------- ------- -------|
D|-------------------------------|-------------------------------|
A|----------------3---3---3---3--|-------------------------------|
E|3-------3----------------------|3-------3-------3---3---3---3--|
  hard            day's       night,                  and I've been


G|------- ------- ------- -------|------- ------- ------- -------|
D|-------------------------------|-------------------------------|
A|-------------------------------|------------------------5------|
E|1-------1-------1---1---1---1--|3-------3-------3---3-------3--|
  working             like a  dog                    It's been a


G|------- ------- ------- -------|------- ------- ------- -------|
D|-------------------------------|-------------------------------|
A|----------------3---3---3---3--|-------------------------------|
E|3-------3----------------------|3-------3-------3---3---3---3--|
  hard            day's       night,                  I should be


G|------- ------- ------- -------|------- ------- ------- -------|
D|-------------------------------|-------------------------------|
A|-------------------------------|-------------------------------|
E|1-------1-------1---1---1---1--|3-------3-------3---3---3---3--|
  sleeping            like a  log                     But when I


G|------- ------- ------- -------|------- ------- ------- -------|
D|-------------------------------|-------------------------------|
A|3-------3-------3-------3------|5-------5-------5---5---5---5--|
E|-------------------------------|-------------------------------|
  get home to you,    I  find the things  you do      will make me
                                      that

G|------- ------- ------- -------|------- ------- ------- -------|
D|-------------------------------|-------------------------------|
A|----------------3---3---3---3--|--------5-------5---5---5---5--|
E|3-------3----------------------|3------------------------------|
  feel            all         right

Verse (half-solo):
G|------- ------- ------- -------|------- ------- ------- -------|
D|-------------------------------|-------------------------------|
A|----------------3---3---3---3--|-------------------------------|
E|3-------3----------------------|3-------3-------3---3---3---3--|
 


G|------- ------- ------- -------|------- ------- ------- -------|
D|-------------------------------|-------------------------------|
A|-------------------------------|----------------5-------5---5--|
E|1-------1-------1---1---1---1--|3-------3----------------------|
 


G|------- ------- ------- -------|------- ------- ------- -------|
D|-------------------------------|-------------------------------|
A|----------------3---3---3---3--|-------------------------------|
E|3-------3----------------------|3-------3-------3---3---3---3--|
 


G|------- ------- ------- -------|------- ------- ------- -------|
D|-------------------------------|-------------------------------|
A|-------------------------------|------------------------0---2--|
E|1-------1-------1---1---1---2--|3-------3-------3---3----------|
                                                      So  why on


G|------- ------- ------- -------|------- ------- ------- -------|
D|-------------------------------|-------------------------------|
A|3-------3-------3---3---3---3--|5-------5-------5---5---5---5--|
E|-------------------------------|-------------------------------|
  earth   I   moan,   cause   I   get you a - lone    you know I
      should              when

G|------- ------- ------- -------|------- ------- ------- -------|
D|-------------------------------|-------------------------------|
A|----------------3---3---3------|-------------------------------|
E|3-------3-------------------3--|3-------3-------3---3---3---3--|
  feel            O.          K.
                                                  When I'm    home,
Bridge:
G|------- ------- ------- -------|------- ------- ------- -------|
D|-------------------------------|-------------------------------|
A|2-------2-------2-------2------|-------------------------------|
E|-------------------------------|0-------0-------0-------0------|
                                  everything  seems   to  be


G|------- ------- ------- -------|------- ------- ------- -------|
D|-------------------------------|-------------------------------|
A|2-------2-------2-------2------|2-------2-------2-------2------|
E|-------------------------------|-------------------------------|
  right                                           When I'm    home,


G|------- ------- ------- -------|------- ------- ------- -------|
D|-------------------------------|-------------------------------|
A|-------------------------------|-------------------------------|
E|3-------3-------3-------3------|0-------0-------0-------0------|
                                  feeling you hol  -  ding me


G|------- ------- ------- -------|------- ------- ------- -------|
D|-------------------------------|-------------------------------|
A|3---3---3---3---3---3---3---3--|5---5---5---5---5---5---5---5--|
E|-------------------------------|-------------------------------|
                                              Mmm,   it's been a
  tight,                      tight,          yeah!
Verse:
G|------- ------- ------- -------|------- ------- ------- -------|
D|-------------------------------|-------------------------------|
A|----------------3---3---3---3--|-------------------------------|
E|3-------3----------------------|3-------3-------3---3---3---3--|
  hard            day's       night,                  and I've been


G|------- ------- ------- -------|------- ------- ------- -------|
D|-------------------------------|-------------------------------|
A|-------------------------------|-------------------------------|
E|1-------1-------1---1---1---2--|3-------3-------3---3---3---3--|
  working             like a  dog                    It's been a


G|------- ------- ------- -------|------- ------- ------- -------|
D|-------------------------------|-------------------------------|
A|----------------3---3---3---3--|-------------------------------|
E|3-------3----------------------|3-------3-------3---3---3---3--|
  hard            day's       night,                  I should be


G|------- ------- ------- -------|------- ------- ------- -------|
D|-------------------------------|-------------------------------|
A|-------------------------------|-------------------------------|
E|1-------1-------1---1---1---1--|3-------3-------3-------3------|
  sleeping            like a  log                     But when I


G|------- ------- ------- -------|------- ------- ------- -------|
D|-------------------------------|-------------------------------|
A|3-------3-------3---2---3---4--|5-------5-------5---5---5---5--|
E|-------------------------------|-------------------------------|
  get home to you,    I  find the things  you do      will make me
                                      that

G|------- ------- ------- -------|------- ------- ------- -------|
D|-------------------------------|-------------------------------|
A|----------------3---3---3---3--|----------------5---5---5---5--|
E|3-------3----------------------|3-------3----------------------|
  feel            all         right                   You know I

Outro:
G|------- ------- ------- -------|------- ------- ------- -------|
D|-------------------------------|-------------------------------|
A|----------------3---3---3---3--|----------------3---3---3---3--|
E|3-------3----------------------|3-------3----------------------|
  feel            all         right                   You know I


G|------- ------- ------- -------|------- ------- ------- -------|
D|-------------------------------|-------------------------------|
A|----------------3---3---3---3--|5------------------------------|
E|3-------3----------------------|-------------------------------|
  feel            all         right!


G|------- ------- ------- -------|------- ------- ------- -------|
D|-------------------------------|-------------------------------|
A|-------------------------------|-------------------------------|
E|-------------------------------|-------------------------------|
fade...

Please e-mail me for any corrections.
comments
print report bad tab
4 comments total. Showing first comments.
+1 reply
LeftyBassPlayer wrote on December 25 2007, 10:30 pm

i think this is the best one

0 reply
PEPEVADER wrote on June 6 2013, 06:34 pm

THANKS A LOT MAN!! GREAT JOB

0 reply
donaldc543 wrote on April 6 2015, 07:35 am

How the heck do you print the tab. print preview shows plank page. It should not be this damn difficult.

Don

I want to post or [tab]
guest
You may want to rate the tab now too:
select rating
Please do not post tabs as comments. Select "correction" instead!