Oops, an error
Loading. Please wait.

A Hard Days Night Bass Tab

version 5
version 5

Interactive

1,784 views 6 this week
no commentswrite comment
1 2 3 4 5
please rate
add to favorites
launch autoscroll
font size
0
reset
guitar tuner
Tab Pro tools
  • play this tab
  • loop segment
  • change instrument
  • show fretboard
  • metronome
×
Best way to learn
"A Hard Days Night"
Autoscroll
slow
fast
+/-
esc
set tempo
stop
Contributor
Difficulty
novice
The Beatles
Hard Days Night

Standard Tuning


  Intro (played with an upstroke)
G|-7---------------|
D|-7---------------|
A|-5---------------|
E|-----------------|

  Verse
G|-----------------------------------------------|
D|------101010-----------------------------------|
A|-10-10------10-10-10-1098-8-88-10-10-101010810-|
E|-----------------------------------------------|

  Verse (Variation)
G|------------------------------------------------|
D|------101010------------------------10h12121212-|
A|-10-10------10-10-10-1098-8-88-10-10------------|
E|------------------------------------------------|

  Verse (Variation 2)
G|------------------------------------------------|
D|------101010---------------------------10--10---|
A|-10-10------10-10-10-1098-8-88-10-10-10--10--10-|
E|------------------------------------------------|



  Verse can also be played like this
G|--------------------------------------------|
D|--------------------------------------------|
A|-10-10---10-10-10-1098-8-88-10-10-101010810-|
E|------888-----------------------------------|

  Verse (Variation)
G|---------------------------------------------|
D|---------------------------------10h12121212-|
A|-10-10---10-10-10-1098-8-88-10-10------------|
E|------888------------------------------------|

  


G|---------------------------------------------------------------|
D|-10-1010109101112-12-12-12-12-12-12-----101010-----10/12121212-|
A|-----------------------------------10-10------10-10------------|
E|---------------------------------------------------------------|

  Chorus
G|--------------------------------------------------------------------------|
D|-9-99-999--------9-99-999-9-99-999-----------------------10-1010-101010/12|
A|---------7-77-777-----------------10-1010-101010-7-77-777-----------------|
E|--------------------------------------------------------------------------|

  Outro
G|--------------------------------------------------------------|
D|------101010-----12121212-----101010-----121212-----101010-10-|
A|-10-10------10-10--------10-10------10-10------10-10-------8--|
E|--------------------------------------------------------------|
comments
We did not receive enough feedback on this tab! Please rate:
print report bad tab
1 2 3 4 5
I want to post or [tab]
guest
You may want to rate the tab now too:
select rating
Please do not post tabs as comments. Select "correction" instead!