Oops, an error
Loading. Please wait.

All My Loving Bass Tab

version 5
version 5
4,262 views 3 this week
1 commentread comment
1 2 3 4 5
excellent!
x 5
add to favorites
launch autoscroll
font size
0
reset
guitar tuner
Tab Pro tools
  • play this tab
  • loop segment
  • change instrument
  • show fretboard
  • metronome
×
Best way to learn
"All My Loving"
Autoscroll
slow
fast
+/-
esc
set tempo
stop
Contributor
Difficulty
Capo
intermediate
2nd fret
Guitar CAPO 2nd Fret

[VERSE 1]
           Em            A7          D           Bm
Close your eyes and I´ll kiss you, tomorrow I'll miss you,
  G           Em        C     A7
remember I'll always be true.

       Em       A7       D        Bm       G        Em       C        A7
G:----|--------|--------|--------|--------|--------|--------|--------|--------|
D:----|4-2-1---|--------|--------|--------|------2-|4-4---4-|0-0-0-0-|--------|
A:----|------4-|2-0-----|----2---|4-4---4-|0-0-4---|----4---|--------|2-2-2-2-|
E:----|--------|----4-2-|0-4---4-|----4---|--------|--------|--------|--------|

         Em         A7             D          Bm
And then while I'm away I'll write home every day
         G           A         D
and I'll send all my loving to you

  Em       A7       D        Bm       G        A        D
G:--------|--------|--------|--------|--------|--------|--------|--------|
D:4-2-1---|--------|--------|--------|------2-|----4---|2-------|--------|
A:------4-|2-0-----|----2---|4-4---4-|0-0-4---|2-2---2-|--4-2---|--------|
E:--------|----4-2-|0-4---4-|----4---|--------|--------|------4-|0-------|

[VERSE 2]
        Em            A7           D         Bm
I'll pretend that I'm kissing, the lips I am missing
    G            Em               C     A7
and hope that my dreams will come true

  Em       A7       D        Bm       G        Em       C        A7
G:--------|--------|--------|--------|--------|--------|--------|--------|
D:4-2-1---|--------|--------|--------|------2-|4-4---4-|0-0-0-0-|--------|
A:------4-|2-0-----|----2---|4-4---4-|0-0-4---|----4---|--------|2-2-2-2-|
E:--------|----4-2-|0-4---4-|----4---|--------|--------|--------|--------|

         Em         A7             D          Bm
And then while I'm away I'll write home every day
         G           A         D
and I'll send all my loving to you

  Em       A7       D        Bm       G        A        D
G:--------|--------|--------|--------|--------|--------|--------|--------|
D:4-2-1---|--------|--------|--------|------2-|----4---|2-------|--------|
A:------4-|2-0-----|----2---|4-4---4-|0-0-4---|2-2---2-|--4-2---|--------|
E:--------|----4-2-|0-4---4-|----4---|--------|--------|------4-|0-------|

[CHORUS]
       Bm     F#7            D
All my loving I will send to you
       Bm      F#7             D
All my loving, darling I'll be true

  Bm       F#7      D        D        Bm       F#7      D
G:--------|--------|--------|--------|--------|--------|--------|--------|
D:--------|--------|2-2-----|2-2---2-|--------|--------|2-------|--------|
A:4-4-----|3-3---3-|----2-2-|----2---|4-4-----|3-3---3-|--4-2---|--------|
E:----4-4-|----4---|--------|--------|----4-4-|----4---|------4-|0-------|

[GUITAR SOLO]
  G        G        D        D        A        A        D
G:--------|2-------|--------|--------|--------|--------|--------|--------|
D:----2-4-|--4-2---|2-------|--------|4-2-1---|--------|2-------|--------|
A:0-4-----|------4-|--4-2---|----2-4-|------4-|2-0-----|--4-2---|--------|
E:--------|--------|------4-|0-4-----|--------|----4-2-|------4-|0-------|




[VERSE 3]
           Em            A7          D           Bm
Close your eyes and I´ll kiss you, tomorrow I'll miss you,
  G           Em        C     A7
remember I'll always be true.

  Em       A7       D        Bm       G        Em       C        A7
G:--------|--------|--------|--------|--------|--------|--------|--------|
D:4-2-1---|--------|--------|--------|------2-|4-4---4-|0-0-0-0-|--------|
A:------4-|2-0-----|----2---|4-4---4-|0-0-4---|----4---|--------|2-2-2-2-|
E:--------|----4-2-|0-4---4-|----4---|--------|--------|--------|--------|

         Em         A7             D          Bm
And then while I'm away I'll write home every day
         G           A         D
and I'll send all my loving to you

  Em       A7       D        Bm       G        A        D
G:--------|--------|--------|--------|--------|--------|--------|--------|
D:4-2-1---|--------|--------|--------|------2-|----4---|2-------|--------|
A:------4-|2-0-----|----2---|4-4---4-|0-0-4---|2-2---2-|--4-2---|--------|
E:--------|----4-2-|0-4---4-|----4---|--------|--------|------4-|0-------|

[CHORUS]
       Bm     F#7            D
All my loving I will send to you
       Bm      F#7             D
All my loving, darling I'll be true

  Bm       F#7      D        D        Bm       F#7      D
G:--------|--------|--------|--------|--------|--------|--------|--------|
D:--------|--------|2-2-----|2-2---2-|--------|--------|2-2-----|2-2---2-|
A:4-4-----|3-3---3-|----2-2-|----2---|4-4-----|3-3---3-|----2-2-|----2---|
E:----4-4-|----4---|--------|--------|----4-4-|----4---|--------|--------|

       Bm        F#7            D
All my loving -- all my loving
       Bm                   D
All my loving, I will send to you

  Bm       Bm       D        D        Bm       Bm       D
G:--------|--------|--------|--------|--------|--------|--------|--------|
D:--------|--------|2-2-----|2-2---2-|--------|--------|2-2-----|--------|
A:4-4-----|4-4---4-|----2-2-|----2---|4-4-----|4-4---4-|----2-2-|--------|
E:----4-4-|----4---|--------|--------|----4-4-|----4---|--------|0-------|

Tabbed by Michael Oxner (moxner@nbnet.nb.ca)
comments
print report bad tab
1 comment total.
0 reply
lbra73 wrote on March 8 2013, 07:19 pm

perfection! thanks

I want to post or [tab]
guest
You may want to rate the tab now too:
select rating
Please do not post tabs as comments. Select "correction" instead!