Oops, an error
Loading. Please wait.

All You Need Is Love Chords

version 1
version 1
703,542 views 531 this week
14 commentsread comments
1 2 3 4 5
accurate
x 34
add to favorites
launch autoscroll
font size
0
reset
transpose
0
reset
simplify chords
display chords
guitar tuner
Tab Pro tools
  • play this tab
  • loop segment
  • change instrument
  • show fretboard
  • metronome
×
Best way to learn
"All You Need Is Love"
Autoscroll
slow
fast
+/-
esc
set tempo
stop
All you need is love - The Beatles

Here's the Beatles' ultimate flower-power peace love and dope song - 
but hey, I like it!. (Speaking of flower-power songs, does anyone 
have the chords to "San Francisco" from Scott McKenzie?. If so, 
please post them to me. Email address at the bottom.)


All you need is love  - The Beatles (Lennon-McCartney)
 (Magical Mystery Tour  - 1967)


[intro]

``` means to let the note ring

E-----------------------------------10```------------------------------|
B------------------------10---10----------12---------------------------|
G-------------12---12--------------------------12----------------------|
D--12---12-------------------------------------------------------------|
A----------------------------------------------------------------------|
E----------------------------------------------------------------------|


E-------------------------------------------------------------------|
B-------12---------------13```------------10--------10--------------|
G--12------12----------------------------------12-------------------|
D------------------14-----------------------------------------------|
A-------------------------------------------------------------------|
E-------------------------------------------------------------------|


G           D/F#      Em
Love      love        love     
G          D/F#     Em 
Love     love        love      
D7/A    G          D7/A         
Love     love       love

(Then play something along the lines of this)

E---------------------------------------------------------|
B---------------------------------------------------------|
G---------------------------------------------------------|
D--0-------------------0----0--2--------------------------|
A-------3-----2---3---------------------------------------|
E---------------------------------------------------------|


[Verse]
G                                    D/F#       Em
There's nothing you can do that can't be done
G                                   D/F#          Em 
Theres nothing you can sing that can't be sung
D7/A                   G                      D/F#                    
Nothing you can say but you can learn to
               D7/A
play the game
D7/A      D7
It's          easy

G                                    D/F#       Em
There's nothing you can make that can't be made
G                                   D/F#          Em 
No one  you can save that can't be saved
D7/A                   G                      D/F# 
Nothing you can do but you can learn how to be you in time
        D7/A
It's easy


[CHORUS]

G          A7       D7
All you need is love
G          A7       D7
All you need is love
G          B7       Em         G/D 
All you need is love        love
C             D7      G
Love is all you need


[Verse]
G                                    D/F#       Em
There's nothing you can know that isn't known
G                                   D/F#          Em 
Nothing you can see that isn't shown
D7/A                   G                      D/F# 
Nowhere you can be that isn't where you're meant to be
        D7/A
Its easy


[CHORUS]

C           D7      G
Love is all you need   
G          A7       D7
All you need is love
D7                         G          A7       D7
All together now   All you need is love
D7                        G          A7       D7
Everybody now   All you need is love 
G      D     G  
Love is all you need   (repeats a few times)

(Then John (I think) starts going "Oh yeah  - loves you yeah yeah 
yeah  - she loves you yeah yeah yeah").


Chords used:

A7      x02020
B7      x21202
C       x32010
D       xx0232
D/F#    xx4232
D7      xx0212
D7/A    x00212
Em      022000
G       320033
G/D     xx0033
comments
print report bad tab
14 comments total. Showing first comments. show 1 bad comment
-1 reply
britishenglish wrote on October 15 2006, 03:42 pm

I think it's excellent, I see no reason for it to be 2 stars.

-1 reply
fakingthebooks wrote on July 18 2007, 09:52 pm

Actually, I find that there is a few changes that I would make myself:
Firstly, I think the riff just before the verse is:

e-------------------
B-------------------
G--------------0----
D-------0--0-2------
A--3--2-------------
E-------------------

Secondly, I think that the chorus would sound better as:

CHORUS:

G A G/D
All you need is love

G A G/D
All you need is love

G B7 Em G/D
All you need is love love

C D G
Love is all you need


But other than that, it's good.

I want to post or [tab]
guest
You may want to rate the tab now too:
select rating
Please do not post tabs as comments. Select "correction" instead!