Oops, an error
Loading. Please wait.

All You Need Is Love solo tab

version 2
version 2

Solo

Interactive

5,207 views 24 this week
no commentswrite comment
1 2 3 4 5
x 6
add to favorites
×
Save as Personal and add changes to this tab that will be seen only by you. Learn more ›
×
You can save this tab as Personal to edit and correct it or add notes. All changes will be seen only by you. Learn more »
launch autoscroll
font size
0
reset
how to read this tab
guitar tuner
backing track
0:00
0:00
edit
Autoscroll
slow
fast
+/-
esc
set tempo
stop
Author
Difficulty
-------------------------------------------------------------------------------
All You Need Is Love Solo – The Beatles
-------------------------------------------------------------------------------
Tabbed by: Schojoefield
E-mail:joeschofield@live.co.uk

Couldn’t find a decent solo tab for this one so thought I’d have a crack. 
Apologies if it’s rubbish - first tab!

Tuning:Standard

e|---------------------------------------------------------------------------|
B|----------10b12—12b10----10p8------------10b12—10b12—12b10---10p8----------|
G|----7------------------------9-------7---------------------------9---------|
D|---------------------------------------------------------------------------|
A|---------------------------------------------------------------------------|
E|---------------------------------------------------------------------------|

e|------8h10p8---7h8p7---5h7p5-----------------------------------------------|
B|-------------------------------------------------------------8-------------|
G|----9-----------------------------7--7--5--5-----4-5-7---7-9---------------|
D|---------------------------------------------------------------------------|
A|---------------------------------------------------------------------------|
E|---------------------------------------------------------------------------|

************************************

| /   slide up
| \   slide down
| h   hammer-on
| p   pull-off
| ~   vibrato
| +   harmonic
| x   Mute note
| b   Bend
| pb  Pre-bend
| br  Bend release
| pbr Pre-bend release
| brb Bend release bend

************************************

            
            
Suggest correction
Creating personal tab
Creating personal tab
You can edit any tab online and save it as your Personal.

You can edit, replace or remove any tab part or add personal notes – all changes will be seen only by you.

Personal tabs can be accessed anytime from any device, even offline.
Learn more »
comments
print report bad tab
guest
You may want to rate the tab now too:
select rating
Wanna post a correction for this tab? Suggest correction