Oops, an error
Loading. Please wait.
We have an official All You Need Is Love tab made by UG professional guitarists. Check out the tab »
×
463 views 3 this week
no commentswrite comment
1 2 3 4 5
3 more votes to show rating
add to favorites
×
Save as Personal and add changes to this tab that will be seen only by you. Learn more ›
×
You can save this tab as Personal to edit and correct it or add notes. All changes will be seen only by you. Learn more »
launch autoscroll
font size
0
reset
how to read this tab
guitar tuner
backing track
0:00
0:00
edit
Autoscroll
slow
fast
+/-
esc
set tempo
stop
Author
Difficulty
-------------------------------------------------------------------------------
                            All you need is love - Beatles
-------------------------------------------------------------------------------
If you get confused, I explained some parts at the bottom


Tuning: Standard

Quick Trumpet Riff:

e|----2---1---0----------3-----------|
B|-----------------4-----3-----------|
G|-----------------------0-----------|
D|-----------------------------------|
A|-----------------------------------|
E|-----------------------------------|

Trumpet Intro:


e|-----0---3--3---5---5----10---7--------7----------8---5--------|
B|--3------0------3--------0-------8--8-----8---5---7------------|
G|--0------0---------------0--------------------5---7------------|
D|---------------------------------------------------------------|
A|---------------------------------------------------------------|
E|---------------------------------------------------------------|

Chords:

(Trumpet Intro)

G     D/F#  Em
Love, Love, Love.
G     D/F#  Em
Love, Love, Love.
Amadd4 G      D7/F#
Love,  Love,  Love.
G                      D/F#             Em
There's nothing you can do that cant be done.
G                D/F#              Em
Nothing you can sing that can't be sung.
Am          G               D7/F#                 D7/E
Nothing you can say but you can learn how to play the game.

It's Easy.
G               D/F#               Em
Nothing you can make that can't be made.
G              D/F#                Em
No one you can save that can't be saved.
Am         G               D7/F#                   D7/E
Nothing you can do but you can learn how to be you in time.

It's easy.

Chorus:
G       A       D     G
All you need is love (Quick Trumpet Riff)
G       A       D     G
All you need is love (Quick Trumpet Riff)
G       B7      Em    Em/D
All you need is love, love
C      D       G
Love is all you need.

(Guitar Solo)

G       A       D
All you need is love (All together Now!)
G       A       D
All you need is love (Everybody!)
G       B7      Em    Em/D
All you need is love, Love.
C       D       G
Love is all you need.


Switch G-D
Ad lib Vocal Parts



Guitar Solo:

e|---------------------------------------------------------------------------|
B|-------10b12~12r10----8b10~r8--8b10-r8---5----------10b12~12r10------------|
G|---7-------------------------------------------7---------------------------|
D|---------------------------------------------------------------------------|
A|---------------------------------------------------------------------------|
E|---------------------------------------------------------------------------|

e|---------------------------------------------------------------------------|
B|-----8b10~10r8---8b10-r8----5----------(Instrumental Break)----------------|
G|--------------------------------7-7-7-7-7-7-7-7-5-5-5-5-5-5-5-5------------|
D|---------------------------------------------------------------------------|
A|---------------------------------------------------------------------------|
E|---------------------------------------------------------------------------|

e|---------------------------------------------------------------------------|
B|--------------5--8---------------------------------------------------------|
G|-4--5--7--7----------------------------------------------------------------|
D|---------------------------------------------------------------------------|
A|---------------------------------------------------------------------------|
E|---------------------------------------------------------------------------|


************************************

May be Confusing for beginners: (Ex.)

e|----------------|
B|---10b12~12r10--|
G|----------------|
D|----------------|
A|----------------|
E|----------------|

Bend up to 12 from 10, strum it twice, Hold the first strum, then release back on 10.

|-------------------|
|---8b10~r8---------|
|-------------------|
|-------------------|
|-------------------|
|-------------------|

Bend up to 10 from 8, Use vibrato if you want, then release on 8.
___________________________________________________________________________________________________________
| /   slide up
| \   slide down
| h   hammer-on
| p   pull-off
| ~   vibrato
| +   harmonic
| x   Mute note
| b   Bend
| pb  Pre-bend
| br  Bend release
| pbr Pre-bend release
| brb Bend release bend

************************************

            
            
Suggest correction
Creating personal tab
Creating personal tab
You can edit any tab online and save it as your Personal.

You can edit, replace or remove any tab part or add personal notes – all changes will be seen only by you.

Personal tabs can be accessed anytime from any device, even offline.
Learn more »
Give kudos to tab author, rate the tab!
1 2 3 4 5
comments
print report bad tab
guest
You may want to rate the tab now too:
select rating
Wanna post a correction for this tab? Suggest correction