Oops, an error
Loading. Please wait.
We have an official And I Love Her tab made by UG professional guitarists. Check out the tab »
×
32,711 views 72 this week
10 commentsread comments
1 2 3 4 5
x 20
add to favorites
×
Save as Personal and add changes to this tab that will be seen only by you. Learn more ›
×
You can save this tab as Personal to edit and correct it or add notes. All changes will be seen only by you. Learn more »
launch autoscroll
font size
0
reset
guitar tuner
backing track
0:00
0:00
edit
Autoscroll
slow
fast
+/-
esc
set tempo
stop
Author
And I Love Her
The Beatles
Written by John Lennon and Paul McCartney; released on the album "A Hard 
Day's Night".

"And I Love Her" was written by Paul, for his girlfriend, actress Jane Asher. 
The bridge was John's composition, and the guitar riff in the intro and outro 
came from George. It was featured in their first film "A Hard Day's Night".
The song was recorded with an arrangement similar to their cover of "Till 
There Was You" on their previous album (Paul on bass and lead vocal, John on 
acoustic rhythm guitar, George playing the lead on a classical guitar, and 
Ringo on bongos, plus a pair of claves). In the beginning, however, the song 
had a very different arrangement with an electric 12-string lead and a full 
drum kit, no bridge, just a string of verses (including the solo), and 
missing the guitar riff from the intro and outro. This was their first song 
to have a key change (from E major/C# minor to F major/D minor).
The song was performed live only once, with a similar arrangement to the live 
performances of "Till There Was You".
Paul's bass part contains a quite unusual touch: two notes are played at the 
same time (making a perfect fifth) every time the C# minor (or D minor later 
in the song) chord is played.

Intro:
G|------- ------- ------- -------|------- ------- ------- -------|
D|-------------------------------|-------------------------------|
A|-------------------------------|-------------------------------|
E|2-----------2---2--------------|2-----------2------------------|



G|------- ------- ------- -------|------- ------- ------- -------|
D|-------------------------------|-------------------------------|
A|-------------------------------|-------------------------------|
E|0-----------0---0--------------|0-----------0---0--------------|


Verse:
G|------- ------- ------- -------|------- ------- ------- -------|
D|-------------------------------|6-----------6---6-------6------|
A|-------------------------------|4-----------4---4-------4------|
E|2-----------2------------------|-------------------------------|
          I       give her    all     my      love,


G|------- ------- ------- -------|------- ------- ------- -------|
D|-------------------------------|6---------------6--------------|
A|-------------------------------|4-----------4------------------|
E|2-----------2---2--------------|-------------------------------|
          that's  all I       do,


G|------- ------- ------- -------|------- ------- ------- -------|
D|-------------------------------|6---------------6--------------|
A|-------------------------------|4-----------4------------------|
E|2-----------2---2--------------|-------------------------------|
          And     if  you     saw     my      love,


G|------- ------- ------- -------|------- ------- ------- -------|
D|------------------------2------|------------1-----------4------|
A|------------4------------------|2------------------------------|
E|5------------------------------|-------------------------------|
          you'd   love her    too,                    I       love


G|------- ----4-- ------- -------|------- ----4-- ----4-- -------|
D|2---------------------------1--|2-----------------------2------|
A|------------------------2------|-------------------------------|
E|-------------------------------|-------------------------------|
      her.

Verse:
G|------- ------- ------- -------|------- ------- ------- -------|
D|-------------------------------|6---------------6--------------|
A|-------------------------------|4-----------4------------------|
E|2-----------2------------------|-------------------------------|
          She     gives me        every   -   thing,


G|------- ------- ------- -------|------- ------- ------- -------|
D|-------------------------------|6---------------6-------6------|
A|-------------------------------|4-----------4------------------|
E|2-----------2---2--------------|-------------------------------|
          and     tender  -   ly,


G|------- ------- ------- -------|------- ------- ------- -------|
D|-------------------------------|6---------------6--------------|
A|-------------------------------|4-----------4------------------|
E|2-----------2---2--------------|-------------------------------|
          The     kiss    my      lo- ver     brings,


G|------- ------- ------- -------|------- ------- ------- -------|
D|------------------------2------|------------1-----------4------|
A|------------4------------------|2------------------------------|
E|5------------------------------|-------------------------------|
          she     brings  to  me,                     and I   love


G|------- ----4-- ------- -------|------- ----4-- ------- -------|
D|2---------------------------1--|2-----------------------2---1--|
A|------------------------2------|--------------------2----------|
E|-------------------------------|-------------------------------|
      her.

Bridge:
G|------- ------- ------- -------|------- ------- ------- -------|
D|-------------------------------|-------------------------------|
A|4-----------4-----------4------|2-----------2-----------2------|
E|-------------------------------|-------------------------------|
              A   love like   ours


G|------- ------- ------- -------|------- ------- ------- -------|
D|-------------------------------|-------------------------------|
A|4-----------4-----------4------|-------------------------------|
E|-------------------------------|4-----------4-----------4------|
          could   ne- ver     die


G|------- ------- ------- -------|------- ------- ------- -------|
D|-------------------------------|-------------------------------|
A|4-----------4-----------4------|-------------------------------|
E|-------------------------------|4-----------4-----------4------|
          as      long as     I                   have    you


G|------- ------- ------- -------|------- ------- ------- -------|
D|-------------------------------|-------------------------------|
A|2-----------2-----------2------|2-----------2-----------2------|
E|-------------------------------|-------------------------------|
  near me.

Verse:
G|------- ------- ------- -------|------- ------- ------- -------|
D|-------------------------------|6-----------6---6--------------|
A|-------------------------------|4-----------4---4--------------|
E|2-----------2---2--------------|-------------------------------|
          Bright  are     the stars       that shine,


G|------- ------- ------- -------|------- ------- ------- -------|
D|-------------------------------|6-----------6---6--------------|
A|-------------------------------|4-----------4---4--------------|
E|2-----------2------------------|-------------------------------|
          dark    is  the     sky,


G|------- ------- ------- -------|------- ------- ------- -------|
D|-------------------------------|6-----------6---6--------------|
A|-------------------------------|4-----------4---4--------------|
E|2-----------2---2--------------|-------------------------------|
          I       know    this    love of     mine


G|------- ------- ------- -------|------- ------- ------- -------|
D|------------------------2------|------------1-----------4------|
A|------------4------------------|2------------------------------|
E|5------------------------------|-------------------------------|
          will    ne- ver     die,                    and I   love


G|------- ----4-- ------- -------|------- ----4-- ----4-- -------|
D|2---------------------------1--|2-----------------------2------|
A|------------------------2------|-------------------------------|
E|-------------------------------|-------------------------------|
      her.

Verse (solo):
G|------- ------- ------- -------|------- ------- ------- -------|
D|-------------------------------|7-----------7---7--------------|
A|-------------------------------|5-----------5---5--------------|
E|3-----------3---3--------------|-------------------------------|



G|------- ------- ------- -------|------- ------- ------- -------|
D|-------------------------------|7-----------7------------------|
A|-------------------------------|5-----------5------------------|
E|3-----------3---3--------------|-------------------------------|



G|------- ------- ------- -------|------- ------- ------- -------|
D|-------------------------------|7-----------7------------------|
A|-------------------------------|5-----------5------------------|
E|3-----------3---3--------------|-------------------------------|



G|------- ------- ------- -------|------- ------- ------- -------|
D|-------------------------------|------------5---5-----------2--|
A|------------8---8--------------|3-----------------------3------|
E|6-----------------------6------|-------------------------------|



G|------- ----5-- ------- -------|------- ----5-- ------- -------|
D|3---------------------------2--|3-----------------------3---5--|
A|------------------------3------|-------------------------------|
E|-------------------------------|-------------------------------|


Verse:
G|------- ------- ------- -------|------- ------- ------- -------|
D|-------------------------------|7-----------7---7--------------|
A|-------------------------------|5-----------5---5--------------|
E|3-----------3------------------|-------------------------------|
          Bright  are     the stars       that shine,


G|------- ------- ------- -------|------- ------- ------- -------|
D|-------------------------------|7-----------7-----------7------|
A|-------------------------------|5-----------5-----------5------|
E|3-----------3---3--------------|-------------------------------|
          dark    is  the     sky,


G|------- ------- ------- -------|------- ------- ------- -------|
D|-------------------------------|7-----------7---7--------------|
A|-------------------------------|5-----------5---5--------------|
E|3-----------3---3--------------|-------------------------------|
          I       know    this    love of     mine


G|------- ------- ------- -------|------- ------- ------- -------|
D|------------------------3------|------------2-----------5------|
A|------------5------------------|3------------------------------|
E|6------------------------------|-------------------------------|
          will    ne- ver     die,                    and I   love


G|------- ----5-- ------- -------|------- ----5-- ------- -------|
D|3---------------------------2--|3-----------------------3------|
A|------------------------3------|-------------------------------|
E|-------------------------------|-------------------------------|
      her.                                            m - m - m

Outro:
G|------- ------- ------- -------|------- ------- ------- -------|
D|-------------------------------|-------------------------------|
A|-------------------------------|-------------------------------|
E|3-----------3---3--------------|3-----------3---3--------------|



G|------- ------- ------- -------|------- ------- ------- -------|
D|-------------------------------|-------------------------------|
A|-------------------------------|-------------------------------|
E|1-----------1---1--------------|1-----------1---1--------------|



G|------- ------- ------- -------|------- ------- ------- -------|
D|-------------------------------|-------------------------------|
A|-------------------------------|-------------------------------|
E|3-----------3---3--------------|3-----------3---3--------------|



G|------- ------- ------- -------|------- ------- ------- -------|
D|-------------------------------|-------------------------------|
A|5------------------------------|-------------------------------|
E|-------------------------------|-------------------------------|

Please e-mail me for any corrections, or write a comment.

            
            
Suggest correction
Creating personal tab
Creating personal tab
You can edit any tab online and save it as your Personal.

You can edit, replace or remove any tab part or add personal notes – all changes will be seen only by you.

Personal tabs can be accessed anytime from any device, even offline.
Learn more »
comments
print report bad tab
10 comments total. Showing first comments.
0 reply
Ian_D'Sa 71 Jul 15, 2007 11:59 AM

Good job, but you could have made it way shorter.

+1 reply
gbeatle 6,186 Jul 16, 2007 06:12 AM

I wanted to submit all my tabs in the same way. I also wanted to display the lyrics in their correct(?) rhythmic pattern. That's why this one is so "long". I think it may be easier to learn. I've seen many "short" tabs, and I was often confused when trying to learn them...

+1 reply
LeftyBassPlayer 10 Dec 28, 2007 05:27 AM

literlly ... no joke ... everytime im looking for beatle tab i hope its by u cuz u do a really good job

guest
You may want to rate the tab now too:
select rating
Wanna post a correction for this tab? Suggest correction