Oops, an error
Loading. Please wait.
We have an official And I Love Her tab made by UG professional guitarists. Check out the tab »
×
26,211 views 51 this week
1 commentread comment
1 2 3 4 5
1 last vote to show rating
add to favorites
×
Save as Personal and add changes to this tab that will be seen only by you. Learn more ›
×
You can save this tab as Personal to edit and correct it or add notes. All changes will be seen only by you. Learn more »
launch autoscroll
font size
0
reset
how to read this tab
guitar tuner
backing track
0:00
0:00
edit
Autoscroll
slow
fast
+/-
esc
set tempo
stop
Author
Unregistered
          F#m                  E6                   C#m                   A
      2 4 4 2 2 2          0 2 2 1 2 0          x 4 6 6 5 4          5 7 7 6 5 5
           B                    E                   G#m                  B7
      7 9 9 8 7 7          0 2 2 1 0 0          4 6 6 4 4 4          7 9 7 8 7 7
          Gm                   Dm                   Bb                    C
      3 5 5 3 3 3          x x 0 2 3 1          x 1 3 3 3 1          x 3 2 0 1 0
          F6                    D
      1 3 0 2 3 1          x x 0 2 3 2

Gtr I (E A D G B E) - 'nylon gtr'
Gtr II (E A D G B E) - 'steel gtr'
Moderately Q=117

[Intro]
                 F#m
 4/4
  Gtr II
  W              Q  Q  E E E E   Q  Q  E E E E
                 |  |  | | | |   |  |  | | |
                 /  /  / / / /   /  /  / / /

   Gtr I
   H    E E E E   W               H     E E E E
e|--------------|---------------|---------------|
B|--------------|---------------|---------------|
G|--------------|---------------|---------------|
D|----------2-1-|---------------|-----------2-1-|
A|--------2-----|-4-------------|---------2-----|
E|--------------|---------------|---------------|

  E6
  Q  Q  E E E E   Q  Q  E E E E
  |  |  | | | |   |  |  | | |
  /  /  / / / /   /  /  / / /

   W               H     E E E E
e|---------------|---------------||
B|---------------|---------------||
G|---------------|---------------||
D|---------------|-----------2-1-||
A|-4-------------|---------2-----||
E|---------------|---------------||

 Verse 1
  F#m             C#m             F#m
  Q  Q  E E E E   Q  Q  E E E E   Q  Q  E E E E
  |  |  | | | |   |  |  | | | |   |  |  | | | |
  /  /  / / / x   /  /  / / / x   /  /  / / / x

   W               W               W
e|---------------|---------------|---------------|
B|---------------|---------------|---------------|
G|---------------|---------------|---------------|
D|---------------|---------------|---------------|
A|-4-------------|---------------|---------------|
E|---------------|---------------|---------------|

  C#m             F#m
  Q  Q  E E E E   Q  Q  E E E E
  |  |  | | | |   |  |  | | | |
  /  /  / / / x   /  /  / / / x

   W               W
e|---------------|----------------|
B|---------------|----------------|
G|---------------|----------------|
D|---------------|----------------|
A|---------------|----------------|
E|---------------|----------------|

  C#m         B   A               B
  Q  Q  E E E E   Q  Q  E E E E   Q  Q  E E E E
  |  |  | | | |   |  |  | | | |   |  |  | | | |
  /  /  / / / o   /  /  / / / x   /  /  / / / x

   W               W               W
e|---------------|---------------|---------------|
B|---------------|---------------|---------------|
G|---------------|---------------|---------------|
D|---------------|---------------|---------------|
A|---------------|---------------|---------------|
E|---------------|---------------|---------------|

  E  E            E  E
  Q  Q  E E E E   Q  Q  E E E E
  |  |  | | | |   |  |  | | | |
  o  /  / / / /   o  /  / / / x

   W               W
e|---------------|----------------||
B|---------------|----------------||
G|---------------|----------------||
D|---------------|----------------||
A|---------------|----------------||
E|---------------|----------------||

[Verse 2 & 3]

  F#m                     C#m               F#m
   Q    Q     E  E E  E   Q   Q   E E E E    Q    Q     E  E E  E
   |    |     |  | |  |   |   |   | | | |    |    |     |  | |  |
   /    /     /  / /  x   /   /   / / / x    /    /     /  / /  x

    E  E E  E  E  E E  E   E E E E E E E E    E  E E  E  E  E E  E
e|-------9----------9----|-----9-------9---|-------9----------9----|
B|----10---10----10---10-|---9---9---9---9-|----10---10----10---10-|
G|-11---------11---------|-9-------9-------|-11---------11---------|
D|-----------------------|-----------------|-----------------------|
A|-----------------------|-----------------|-----------------------|
E|-----------------------|-----------------|-----------------------|

  C#m               F#m
  Q   Q   E E E E    Q    Q     E  E E  E
  |   |   | | | |    |    |     |  | |  |
  /   /   / / / x    /    /     /  / /  x

   E E E E E E E E    E  E E  E  E  E E  E
e|-----9-------9---|-------9----------9-----|
B|---9---9---9---9-|----10---10----10---10--|
G|-9-------9-------|-11---------11----------|
D|-----------------|------------------------|
A|-----------------|------------------------|
E|-----------------|------------------------|

  C#m           B   A
  Q   Q   E E E E   Q    Q    E  E E  E
  |   |   | | | |   |    |    |  | |  |
  /   /   / / / o   /    /    /  / /  x

   E E E E E E E E   E  E E  E E  E E  E
e|-----9-------9---|------9---------9----|
B|---9---9---9---9-|---10---10---10---10-|
G|-9-------9-------|-9---------9---------|
D|-----------------|---------------------|
A|-----------------|---------------------|
E|-----------------|---------------------|

  B                         E   E             E   E
   Q     Q     E  E  E  E   Q   Q   E E E E   Q   Q   E E E E
   |     |     |  |  |  |   |   |   | | | |   |   |   | | | |
   /     /     /  /  /  x   o   /   / / / /   o   /   / / / x

    E  E  E  E  E  E  E  E   E E E E E E E E   E E E E E E E E
e|-------11----------11----|-----9-------9---|-----9-------9----||
B|----10----10----10----10-|---9---9---9---9-|---9---9---9---9--||
G|-11----------11----------|-9-------9-------|-9-------9--------||
D|-------------------------|-----------------|------------------||
A|-------------------------|-----------------|------------------||
E|-------------------------|-----------------|------------------||

[Bridge]
  C#m              B                C#m              G#m
   Q  Q  E E E E    Q  Q  E E E E    Q  Q  E E E E    Q  Q  E E E E
   |  |  | | |      |  |  | | |      |  |  | | |      |  |  | | | |
   /  /  / / /      /  /  / / /      /  /  / / /      /  /  / / / /

    W                W                W                W
e|-^4-------------|-^7-------------|-^4-------------|-^4--------------|
B|-^5-------------|-^7-------------|-^5-------------|-^4--------------|
G|-^6-------------|-^8-------------|-^6-------------|-^4--------------|
D|-^6-------------|-^9-------------|-^6-------------|-^6--------------|
A|-^4-------------|-^9-------------|-^4-------------|-^6--------------|
E|----------------|-^7-------------|----------------|-^4--------------|

  C#m              G#m              B
   Q  Q  E E E E    Q  Q  E E E E    Q  Q  E E E E
   |  |  | | | |    |  |  | | | |    |  |  | | | |
   /  /  / / / /    /  /  / / / /    /  /  / / / /

    W                W                W
e|-^4-------------|-^4-------------|-^7-------------|
B|-^5-------------|-^4-------------|-^7-------------|
G|-^6-------------|-^4-------------|-^8-------------|
D|-^6-------------|-^6-------------|-^9-------------|
A|-^4-------------|-^6-------------|-^9-------------|
E|----------------|-^4-------------|-^7-------------|

  B7                F#m
   Q  Q  E E E E     Q    Q     E  E E  E
   |  |  | | |       |    |     |  | |  |
   /  /  / / /       /    /     /  / /  x

    H     E E E E     E  E E  E  E  E E  E
e|-^7-------------||-------9----------9-----|
B|-^7-------------||----10---10----10---10--|
G|-^8-------------||-11---------11----------|
D|-^7---------2-1-||------------------------|
A|-^9-------2-----||--4---------------------|
E|-^7-------------||------------------------|
                     W

[Guitar Solo]
  &
  Gm               Dm
  Q  Q   E E E E    Q     Q     E E E E
  |  |   | | |      |     |     | | |
  /  /   / / /      /     /     / / /

                                 ~
   Q  E E E E E E   +E  E +S  E. H
e|----------------|----------------------|
B|--------------5-|-(5)-3-(3)s6--6-------|
G|--------2-3-----|----------------------|
D|------5---------|----------------------|
A|----------------|----------------------|
E|----------------|----------------------|

  Gm              Dm                  Gm
  Q  Q  E E E E   Q  Q     E  E E E   Q  Q  E E E E
  |  |  | | |     |  |     |  | | |   |  |  | | |
  /  /  / / /     /  /     /  / / /   /  /  / / /

   Q  Q  Q   Q     Q  S E. +H          Q  Q  E Q   E
e|---------------|-------------------|---------------|
B|---------------|-5--5s3--(3)-------|-------------5-|
G|-------2---3---|-------------------|-------2-3-----|
D|----5----------|-------------------|----5----------|
A|---------------|-------------------|---------------|
E|---------------|-------------------|---------------|

  Dm                 Bb              C
   Q   Q   E E E E   Q  Q  E E E E   Q    Q  E E   E   E
   |   |   | | |     |  |  | | |     |    |  | |   |
   /   /   / / /     /  /  / / /     /    /  / /   /

           ~
                                             |---3---|
  +Q   E E H         Q  Q  Q   Q     Q  a Q  Q   Q   Q
|------------------|---------------|---------------------|
|-(5)--3s6-6-------|----6--3-------|---------------------|
|------------------|-----------3---|---------------------|
|------------------|---------------|-7--7s5--5-----------|
|------------------|---------------|-------------3---3---|
|------------------|---------------|---------------------|

  F6
  Q  Q   E E E E   Q  Q    E  E E E
  |  |   | | | |   |  |    |  | |
  /  /   / / / /   /  /    /  / /

   Q  H.            Q  E E +E  E E E
e|----------------|------------------||
B|----------------|------------------||
G|----2-----------|------------------||
D|-0--------------|------------------||
A|----------------|------3-(3)-0-----||
E|----------------|--------------3-1-||

[Verse 4]
  Gm                 Dm                        Gm
    Q   Q  E E E E    Q     Q     E  E  E  E    Q     Q     E  E  E  E
    |   |  | | | |    |     |     |  |  |       |     |     |  |  |  |
    /   /  / / / x    /     /     /  /  /       /     /     /  /  /  /

   a H.         Q      E  E  E  E  E  E  E  E    E  E  E  E  E  E  E  E
e|------------------|-------10----------10----|-------10----------10----|
B|------------------|----10----10----10----10-|----11----11----11----11-|
G|------------------|-10----------10----------|-12----------12----------|
D|------------------|-------------------------|-------------------------|
A|------------------|-------------------------|-------------------------|
E|-1s3--------------|-------------------------|-------------------------|

  Dm                        Gm
   Q     Q     E  E  E  E    Q     Q     E  E  E  E
   |     |     |  |  |       |     |     |  |  |  |
   /     /     /  /  x       /     /     /  /  /  x

    E  E  E  E  E  E  E  E    E  E  E  E  E  E  E  E
e|-------10----------10----|-------10----------10------|
B|----10----10----10----10-|----11----11----11----11---|
G|-10----------10----------|-12----------12------------|
D|-------------------------|---------------------------|
A|-------------------------|---------------------------|
E|-------------------------|---------------------------|

  Dm                        Bb
   Q     Q     E  E  E  E    Q     Q     E  E  E  E
   |     |     |  |  |       |     |     |  |  |
   /     /     /  /  /       /     /     /  /  /

    E  E  E  E  E  E  E  E    E  E  E  E  E  E  E  E
e|-------10----------10----|-------10----------10----|
B|----10----10----10----10-|----11----11----11----11-|
G|-10----------10----------|-10----------10----------|
D|-------------------------|-------------------------|
A|-------------------------|-------------------------|
E|-------------------------|-------------------------|

  C                         F6
   Q     Q     E  E  E  E    Q     Q     E  E  E  E    Q     Q     E E E E
   |     |     |  |  |       |     |     |  |  |  |    |     |     | | |
   /     /     /  /  /       /     /     /  /  /  /    /     /     / / /

    E  E  E  E  E  E  E  E    E  E  E  E  E  E  E  E    E  E  E  E  E E E E
e|-------12----------12----|-------10----------10----|-------10-------------||
B|----11----11----11----11-|----10----10----10----10-|----10----10----------||
G|-12----------12----------|-10----------10----------|-10----------10-------||
D|-------------------------|-------------------------|------------------3-2-||
A|-------------------------|-------------------------|----------------3-----||
E|-------------------------|-------------------------|----------------------||

[Outro]
  Gm                              F6
  Q  Q  E E E E   Q  Q  E E E E   Q  Q  E E E E
  |  |  | | | |   |  |  | | |     |  |  | | | |
  /  /  / / / /   /  /  / / x     /  /  / / / /

                                   ~
   W               H     E E E E   W
e|---------------|---------------|---------------|
B|---------------|---------------|---------------|
G|---------------|---------------|---------------|
D|---------------|-----------3-2-|---------------|
A|-5-------------|---------3-----|-5-------------|
E|---------------|---------------|---------------|

                    Gm                              D
  Q  Q  E E E E     Q  Q  E E E E   Q  Q  E E E E   W
  |  |  | | | |     |  |  | | | |   |  |  | | | |   |
  /  /  / / / x     /  /  / / / /   /  /  / / / x   /

   H     E E E E   a W               H     E E E E   W
e|---------------|-----------------|---------------|------*|
B|---------------|-----------------|---------------|------*|
G|---------------|-----------------|---------------|------*|
D|-----------3-2-|-----------------|-----------3-2-|-0----*|
A|---------3-----|-3s5-------------|---------3-----|------*|
E|---------------|-----------------|---------------|------*|

************************************

| (n)  Ghost note
| ~    Vibrato

************************************

            
            
Suggest correction
Creating personal tab
Creating personal tab
You can edit any tab online and save it as your Personal.

You can edit, replace or remove any tab part or add personal notes – all changes will be seen only by you.

Personal tabs can be accessed anytime from any device, even offline.
Learn more »
Give kudos to tab author, rate the tab!
1 2 3 4 5
comments
print report bad tab
1 comment total.
0 reply
Hayden 0wnz 50 Nov 28, 2008 10:55 AM

perfect

guest
Wanna post a correction for this tab? Suggest correction