Oops, an error
Loading. Please wait.

And Your Bird Can Sing Bass Tab

version 2
version 2

Whole song

Interactive

1,240 views 1 this week
no commentswrite comment
1 2 3 4 5
please rate
add to favorites
launch autoscroll
font size
0
reset
guitar tuner
Tab Pro tools
  • play this tab
  • loop segment
  • change instrument
  • show fretboard
  • metronome
×
Best way to learn
"And Your Bird Can Sing"
Autoscroll
slow
fast
+/-
esc
set tempo
stop
Contributor
-------------------------------------------------------------------------------
                             And Your Bird Can Sing Anthology Disc 2 - The Beatles
-------------------------------------------------------------------------------
Tabbed by: Zach1193
E-mail: Zach119d3@aol.com

Tuning: EADG (standard)


Verses:

  Intro: play this line twice then play the whole thing.
G|--------------------------------------------------------------------------|
D|-----------12------------11-----------9-----------------------------------|
A|-------------------------------------------------12----10--9--------------|
E|----10------------10-----------10----------10-----------------12----------|

G|--------------------------------------------------------------------------|
D|--------12-------12------12------12--12--12-------------------------------|
A|--------------------------------------------------------------------------|
E|----10------10-------10------10-------------------------------------------|

G|--------------------------------------------------------------------------|
D|--------------------------------------------------------------------------|
A|----7--9--10--------------12--11--9---------------------------------------|
E|--------------7--8--10---------------12--10--9--7--9----------------------|

G|--------------------------------------------------------------------------|
D|--------12-----------------12--12-----------------------------------------|
A|------------9--10--12--------------9--10--12------------------------------|
E|----10-----------------10-------------------------------------------------|

Chorus:

G|----------------------------------------------------------------------------------|
D|-------------4----4-------------3----3-------------2----2-------------6----5------|
A|----2--4--5------------2--4--5------------2--4--5------------2--4--5--------------|
E|----------------------------------------------------------------------------------|

G|-----------------------------------------------------------------------------------|
D|-----------------------------------------------------------------------------------|
A|----7--6--4-------9----7--6----------9----7--6---------12----------12----------12--|
E|-------------7---------------9--7---------------9--10------101010------101010------|

Pre-solo variation:

G|--------------------------------------------------------------------------|
D|--------12-------------12------12--12--12---------------------------------|
A|------------9--10--12------12---------------------------------------------|
E|----10--------------------------------------------------------------------|

Solo:

G|--------------------------------------------------------------------------|
D|----12(x16)--9--9--9--9--14--14--14--14-----------------------------------|
A|--------------------------------------------------------------------------|
E|--------------------------------------------------------------------------|

second chorus variation at end:

G|----------------------------------------------------------------------------|
D|----------------------------------------------------------------------------|
A|----12------------12--------12----------------------------------------------|
E|--------101010------101112--------------------------------------------------|

For the end, just play the verse to the rhythm, but you can just play around, that's 
basically what Paul does.



| /  slide up
| \  slide down
| h  hammer-on
| p  pull-off
| ~  vibrato
| +  harmonic
| x  Mute note
===============================================================================
comments
We did not receive enough feedback on this tab! Please rate:
print report bad tab
1 2 3 4 5
I want to post or [tab]
guest
You may want to rate the tab now too:
select rating
Please do not post tabs as comments. Select "correction" instead!