Oops, an error
Loading. Please wait.
We have an official And Your Bird Can Sing tab made by UG professional guitarists. Check out the tab »
×
36,325 views 18 this week
4 commentsread comments
1 2 3 4 5
x 4
add to favorites
×
Save as Personal and add changes to this tab that will be seen only by you. Learn more ›
×
You can save this tab as Personal to edit and correct it or add notes. All changes will be seen only by you. Learn more »
launch autoscroll
font size
0
reset
how to read this tab
guitar tuner
backing track
0:00
0:00
edit
Autoscroll
slow
fast
+/-
esc
set tempo
stop
And Your Bird Can Sing
as performed by The Beatles
Words and Music by John Lennon and Paul McCartney

4/4 Time
Standard Tuning
(All chords are for guitar with capo at 2nd fret)


Intro

    D   /   /   /     /   /   /   /     /   /   /   /     /   /   /   /
e||-----------------|-------------0-2-|-4---4----4b-r---|-------0-2b-2-0--|
B||---9\7-5-7-5-4-5-|-4-2-0-----0-----|-----------------|-5\0-2----------2|
G||-----------------|-------2-1-------|-----------------|-----------------|
D||-----------------|-----------------|-----------------|-----------------|
A||-----------------|-----------------|-----------------|-----------------|
E||-0---------------|-----------------|-----------------|-----------------|
//////////////////////////////////////////////////////////////////////////\
e||-----------------|-----------------|-----------------|-----------------|
B||-----------------|-----------------|-5---5----5b-r---|------0-2/5-2-0--|
G||---9\8-6-8-6-4-6-|-4-------------4-|-----------------|-4\1-2----------1|
D||-----------------|---7-6-4---4-6---|-----------------|-----------------|
A||-----------------|---------7-------|-----------------|-----------------|
E||-0---------------|-----------------|-----------------|-----------------|


Verse

   D       /       /       /
e|--------------------------------|
B|-0------------------------------|
G|--------------------------------|
D|--------------------------------|
A|--------------------------------|
E|--------------------------------|
//////////////////////////////////\
e|--------------------------------|
B|--------------------------------|
G|--------------------------------|
D|-2------------------------------|
A|--------------------------------|
E|--------------------------------|
   Tell me that you've got ev-'ry

D     /   /    /
thing you want
D   /    /    /
and your bird can
D     /       /        /
sing, but you don't get me,
Em / / /
G / /    /        /
     you don't get
D /  / /
  me.

   D   /   /   /     /   /   /      /
e|-------0-2b-2p0--|---------------------|
B|---0-2----------2|-0-------------------|
G|-----------------|---------------------|
D|-----------------|---------------------|
A|-----------------|---------------------|
E|-----------------|---------------------|
/////////////////////////////////////////\
e|-----------------|---------------------|
B|------0-2/5-2p0--|---------------------|
G|---1-2----------1|---------------------|
D|-----------------|-2-------------------|
A|-----------------|---------------------|
E|-----------------|---------------------|
                     You say you've seen

D  /  /  /
seven wonders
D   /    /    /
and your bird is
D      /      /        /
green, but ya can't see me,
Em / / /
G /   /     /
   ya can't see
D5-D / / /
     me.
D / / ///G6


Bridge

   F#m    /     /   / /     F#m/maj7 /   /   / /
e|-----------4------------|------------------------|
B|--------4--4------4-----|--------4--8------4-----|
G|-4---6--4---------4-6-4-|-4---6--4--8------4-6-4-|
D|-6---8--------------8-6-|-6---8--------------8-6-|
A|------------------------|------------------------|
E|------------------------|------------------------|
   When your prized po-ses-sions

   F#m7  /     /  / /       B/D#  /     /  / /
e|------------------------|------------------------|
B|-------4--7-----4-------|-------7--6-------------|
G|-4--6--4--8-----4-6--4--|-4--6--8--6-----6-------|
D|-6--8-------------8--6--|-6--8-----------6-6-----|
A|------------------------|------------------8--8--|
E|------------------------|---------------------9--|
   start to weigh you down,

   D      /    / /  /       Em     /    / /  /
e|------------------------|---------2-------------|
B|-----------5------------|------2--2--2----------|
G|--------4--4---4--------|----2-2-----2----2-----|
D|-6----6-6------6--6-----|-4--4------------4--4--|
A|-7----7-----------7-----|-4------------------4--|
E|--------------------7---|-----------------------|
   look in   my  di - rec - tion,      I'll be 'round,

   Em    /   / /    /       A     /     /  /  /
e|----------2-------------|----------2-------------|
B|-------2--2--2----------|-------4--4-----4-------|
G|----2--2-----2----2-----|----4--4--------4--4p2--|
D|-4--4-------------4---4-|-4--4--------------4----|
A|-4--------------------4-|-2----------------------|
E|------------------------|------------------------|
               I'll be 'round.


Guitar Solo

   D   /   /   /     /   /   /   /     /   /   /   /     /   /   /  /
e|-----------------|-------------0-2-|-4---4----4br----|-------0-2b-2-0--|
B|---9\7-5-7-5-4-5-|-4-2-0-----0-----|-----------------|-5\0-2----------2|
G|-----------------|-------2-1-------|-----------------|-----------------|
D|-----------------|-----------------|-----------------|-----------------|
A|-----------------|-----------------|-----------------|-----------------|
E|-0---------------|-----------------|-----------------|-----------------|
/////////////////////////////////////////////////////////////////////////\
e|-----------------|-----------------|-----------------|-----------------|
B|-----------------|-----------------|-5---5----5br----|------0-2/5-2-0--|
G|---9\8-6-8-6-4-6-|-4-------------4-|-----------------|-4\1-2----------1|
D|-----------------|---7-6-4---4-6---|-----------------|-----------------|
A|-----------------|---------7-------|-----------------|-----------------|
E|-0---------------|-----------------|-----------------|-----------------|

   Em  /   /   /     A   /   /   /     D     /  /  /     /   / / / / /
e|-2-4-5-7-5-4-----|-------4-5-7-9-11|-11h12-12~-12br--|-7---------------|
B|-------------7-5-|-4-5-7-----------|-----------------|---9-------------|
G|-----------------|-----------------|-----------------|-----9-----------|
D|-----------------|-----------------|-----------------|-----------------|
A|-----------------|-----------------|-----------------|-----------------|
E|-----------------|-----------------|-----------------|-----------------|
/////////////////////////////////////////////////////////////////////////\
e|-----------------|---------------2-|-2h4---4~~-4br---|-0---------------|
B|-----2-4-2-------|---------2-4-5---|-----------------|---0-------------|
G|-2/4-------4-2-1-|---1-2-4---------|-----------------|-----1-----------|
D|-----------------|-4---------------|-----------------|-----------------|
A|-----------------|-----------------|-----------------|-----------------|
E|-----------------|-----------------|-----------------|-----------------|


Bridge


   F#m    /     /   / /     F#m/maj7 /   /   / /
e|-----------4------------|------------------------|
B|--------4--4------4-----|--------4--8------4-----|
G|-4---6--4---------4-6-4-|-4---6--4--8------4-6-4-|
D|-6---8--------------8-6-|-6---8--------------8-6-|
A|------------------------|------------------------|
E|------------------------|------------------------|
   When your bird   is  bro  -  ken,

   F#m7  /     /  / /       B/D#  /     /  / /
e|------------------------|------------------------|
B|-------4--7-----4-------|-------7--6-------------|
G|-4--6--4--8-----4-6--4--|-4--6--8--6-----6-------|
D|-6--8-------------8--6--|-6--8-----------6-6-----|
A|------------------------|------------------8--8--|
E|------------------------|---------------------9--|
   will it  bring you       down?

   D      /    / /  /       Em     /    / /  /
e|------------------------|---------2-------------|
B|-----------5------------|------2--2--2----------|
G|--------4--4---4--------|----2-2-----2----2-----|
D|------6-6------6--6-----|-4--4------------4--4--|
A|-7----7-----------7-----|-4------------------4--|
E|--------------------7---|-----------------------|
   You  will be  a -  wo -  ken,       I'll be 'round,

   Em    /   / /    /       A     /     /  /  /
e|----------2-------------|----------2-------------|
B|-------2--2--2----------|-------4--4-----4-------|
G|----2--2-----2----2-----|----4--4--------4--4----|
D|-4--4-------------4---4-|-4--4--------------4--4-|
A|-4--------------------4-|-2--------------------2-|
E|------------------------|------------------------|
               I'll be 'round.                   You


Verse

D       /           /     /
tell me that you've heard ev'ry 
/  /  /     /   /
sound there is
/ / / /  /    /
and your bird can
/  /   /      /         / G6
swing, but ya can't hear me,
Em / / /
G/ /    /         //
     ya can't hear
D5 D / / / / /////
me.


Outro

   D   /   /   /     /   /   /   /     /   /   /   /     /   /   /  /
e|-----------------|-------------0-2-|-4---4----4br----|-------0-2b-2-0--|
B|---9\7-5-7-5-4-5-|-4-2-0-----0-----|-----------------|-5\0-2----------2|
G|-----------------|-------2-1-------|-----------------|-----------------|
D|-----------------|-----------------|-----------------|-----------------|
A|-----------------|-----------------|-----------------|-----------------|
E|-0---------------|-----------------|-----------------|-----------------|
/////////////////////////////////////////////////////////////////////////\
e|-----------------|-----------------|-----------------|-----------------|
B|-----------------|-----------------|-5---5----5br----|------0-2/5-2-0--|
G|---9\8-6-8-6-4-6-|-4-------------4-|-----------------|-4\1-2----------1|
D|-----------------|---7-6-4---4-6---|-----------------|-----------------|
A|-----------------|---------7-------|-----------------|-----------------|
E|-0---------------|-----------------|-----------------|-----------------|

   Em  /   /   /     A   /   /   /     D /   /  /  /     /   / / / / /
e|-2-4-5-7-5-4-----|-------4-5-7-9-11|-12---12~--12br--|-7---------------|
B|-------------7-5-|-4-5-7-----------|-----------------|---9-------------|
G|-----------------|-----------------|-----------------|-----9-----------|
D|-----------------|-----------------|-----------------|-----------------|
A|-----------------|-----------------|-----------------|-----------------|
E|-----------------|-----------------|-----------------|-----------------|
/////////////////////////////////////////////////////////////////////////\
e|-----------------|---------------2-|-4----4~~--4br---|-0---------------|
B|-----2-4-2-------|---------2-4-5---|-----------------|---1-------------|
G|-2/4-------4-2-1-|---1-2-4---------|-----------------|-----1-----------|
D|-----------------|-4---------------|-----------------|-----------------|
A|-----------------|-----------------|-----------------|-----------------|
E|-----------------|-----------------|-----------------|-----------------|

   D   /   /   /     /   /   /   /     /   /   /   /     Gtype2
e|-----------------|-----------------|-----------------|-0---------------||
B|---9\7-5-7-5-4-5-|---9\7-5-7-5-4-5-|---9\7-5-7-5-4-5-|-2---------------||
G|-----------------|-----------------|-----------------|-2---------------||
D|-----------------|-----------------|-----------------|-2---------------||
A|-----------------|-----------------|-----------------|-0---------------||
E|-0---------------|-0---------------|-0---------------|-----------------||
//////////////////////////////////////////////////////////////////////////\
e|-----------------|-----------------|-----------------|-----------------||
B|-----------------|-----------------|-----------------|-2---------------||
G|---9\8-6-8-6-4-6-|---9\8-6-8-6-4-6-|---9\8-6-8-6-4-6-|-2---------------||
D|-----------------|-----------------|-----------------|-2---------------||
A|-----------------|-----------------|-----------------|-0---------------||
E|-0---------------|-0---------------|-0---------------|-----------------||
~~~~~~~~~~~~~~~~~~~~~~~~~~~~~~~~~~~~~~~~~~~~~~~~~~~~~~~~~~~~~~~~~~~~~~~~~~~
Chords
(Capo on 2nd Fret)

     D    Em   G   G6   F#m F#m/maj7 F#m7 B/D#  A   Gtype2
e-  -2-  -0-  -3-  -0-  -2-  -2-     -2-  -x-  -0-  -x-
B-  -3-  -0-  -3-  -0-  -2-  -2-     -2-  -4-  -2-  -0-
G-  -2-  -0-  -0-  -0-  -2-  -2-     -2-  -4-  -2-  -0-
D-  -0-  -2-  -0-  -0-  -4-  -3-     -2-  -4-  -2-  -0-
A-  -x-  -2-  -2-  -x-  -x-  -x-     -x-  -6-  -0-  -2-
E-  -x-  -0-  -3-  -x-  -x-  -x-     -x-  -x-  -x-  -3-

            
            
Suggest correction
Creating personal tab
Creating personal tab
You can edit any tab online and save it as your Personal.

You can edit, replace or remove any tab part or add personal notes – all changes will be seen only by you.

Personal tabs can be accessed anytime from any device, even offline.
Learn more »
comments
print report bad tab
4 comments total. Showing first comments.
0 reply
Dahmir 10 Sep 30, 2004 08:00 PM

this is not a very good tab

0 reply
That_Pink_Queen 686 Oct 18, 2006 04:48 PM

You do realize there are two harmonized guitars, right?

0 reply
flakeyc 50 Aug 11, 2008 12:14 PM

haven't tried this yet but it's looks like it could be accurate just looking at it.
tht f#m f#mM7 bit looks like it could be 2 guitars also? seems a bit awkward to pick... guiess I'll find that out when i try it.

guest
You may want to rate the tab now too:
select rating
Wanna post a correction for this tab? Suggest correction