Oops, an error
Loading. Please wait.
We have an official Back In The Ussr tab made by UG professional guitarists. Check out the tab »
×
47,733 views 42 this week
7 commentsread comments
1 2 3 4 5
x 23
add to favorites
×
Save as Personal and add changes to this tab that will be seen only by you. Learn more ›
×
You can save this tab as Personal to edit and correct it or add notes. All changes will be seen only by you. Learn more »
launch autoscroll
font size
0
reset
guitar tuner
backing track
0:00
0:00
edit
Autoscroll
slow
fast
+/-
esc
set tempo
stop
Author
Unregistered
Song: Back In The USSR
Artist: The Beatles
Album: The White Album

I know this is 100% Correct because I had to learn this song out of a
book for bass lessons. I don't listen to the Beatles, but I saw
this on the request page and since I was bored I thought I'd tab it.

[Intro]

G:-----------------|
D:-----------------|
A:-----------------|
E:-0-0-0-0-0-0-0-0-| 4X, then

[Verse]

G:---------------------------------|
D:-7-7-5-5-------------------7-----|
A:---------7-7-4-4-5-5-5-5-5---5-5-|
E:---------------------------------|

G:---------------------------------|
D:-----------5---------------7-----|
A:-3-3-3-3-3---3-3-5-5-5-5-5---5-5-|
E:---------------------------------|
Play 2X, then

[Chorus 1]

G:---------------------------------------------------|
D:-7-7-7-7-7-7-7-7-----------------------------------|
A:-----------------3-3-3-3-3-3-3-3-5-5-5-5-5-5-5---5-|
E:---------------------------------------------------|
Play this 1X, then after he says "Back In the USSR",
play this little fill before the second verse:

Verse Fill 1

G:---------------------------------|
D:-7-7-7-7-7-7-7-7-7---------------|
A:-------------------5-6-7---7-7-7-|
E:---------------------------------|

Then Play the verse 2X, then

[Chorus 2]

G:---------------------------------------------------|
D:-7-7-7-7-7-7-7-7-----------------------------------|
A:-----------------3-3-3-3-3-3-3-3-5-5-5-5-5-5-5---7-|
E:---------------------------------------------------|

Rest For the "Back In the US, Back in the US,..." part, then

Pre-Bridge

G:---------------------------------|
D:---------------------------------|
A:---------------------------------|
E:-5-5-5-5-5-5-5-5-5-5-5-5-5-5-5-5-|
1X, then

[Bridge]

G:--------------------------------------------------|
D:----------------------------------7-7-7-7-7-7-7-7-|
A:-5-5-5-5-5-5-5-5-5-5-5-5-5-5-5-5------------------|
E:--------------------------------------------------|

G:-------------------------------------------------|
D:-7-7-7-7-5-5-5-5---------------------------------|
A:-----------------5-5-5-5-4-4-4-4-3-3-3-3-2-2-2-2-|
E:-------------------------------------------------|

G:------------------------------------------------------------------|
D:---------------------------------7-7-7-7-7-7-7-7-7-7-9-9----------|
A:-7-7-7-7-7-7-7-7-5-5-5-5-5-5-5-5-------------------------7--7-7-7-|
E:------------------------------------------------------------------|
Play 1X, then

Play the Verse part 2X over guitar solo
Play Chorus 1 1X, then

Pre-Bridge 2

G:-----------------------------------|
D:-7-7-7-7-7-7-7-7-7-7-7-7-7-7-7-7-7-|
A:-----------------------------------|
E:-----------------------------------|
Play 1X, then

Play Bridge 1X
Play Verse 2X
Play Chorus 1 1X, then

Keep playing A:-5- for the outro, I'm not sure exactly how many times

End on E:-5-(5)


******************************************

()=Let ring

******************************************
Suggest correction
Creating personal tab
Creating personal tab
You can edit any tab online and save it as your Personal.

You can edit, replace or remove any tab part or add personal notes – all changes will be seen only by you.

Personal tabs can be accessed anytime from any device, even offline.
Learn more »
comments
print report bad tab
7 comments total. Showing first comments.
+1 reply
sarco 50 Dec 16, 2001 07:00 PM

very well done.Better than most.

+1 reply
Gibsum 41 113 Mar 02, 2008 06:50 PM

that sounds perfect to me

0 reply
R8:31b 1,731 Apr 02, 2009 02:48 PM

this tabs pretty good, pretty amazing how john and george bass on this song ( john 6 string bass, and george a 4 stringer) paul did the rest of a instruments. even drums...

guest
Wanna post a correction for this tab? Suggest correction