Oops, an error
Loading. Please wait.
We have an official Back In The Ussr tab made by UG professional guitarists. Check out the tab »
×
141,873 views 171 this week
6 commentsread comments
1 2 3 4 5
x 25
add to favorites
×
Save as Personal and add changes to this tab that will be seen only by you. Learn more ›
×
You can save this tab as Personal to edit and correct it or add notes. All changes will be seen only by you. Learn more »
save as personal
new!
launch autoscroll
font size
0
reset
how to read this tab
guitar tuner
backing track
0:00
0:00
Autoscroll
slow
fast
+/-
esc
set tempo
stop
Author
  ----------------------------------------------------------------
  
  THE BEATLES - BACK IN THE USSR (Lennon/McCartney) From the WHITE 
                album. Released on November, 22nd 1968.

  ----------------------------------------------------------------

  Tabbed by:PJVillanueva



  e|-------------------------------|--------8----------------------|
  B|-------------------------------|-------------------------------|
  G|-------------------------------|-------------------------------|
  D|-------------------------------|------------8\5-----B7\-x------|
  A|-------------------------------|-------------------------------|
  E|-------------------------------|-------------------------------|

    00:09                                  
    x   x   x   x   x   x   x   x   x   x   x   x   x   x   x   x
                            E                               E7
  e|------------------------0------|------------------------0------|
  B|-------------------------------|------------------------3------|
  G|-------------------------------|------------------------1------|
  D|-------------------------------|------------------------0------|
  A|-------------------------------|------------------------2------|
  E|-------------------------------|-------------------------------|

  e|-------------------------------|-------------------------------|
  B|3---3---3---3---3---3---3---3--|3---3---3---3---3---3---3---3--|
  G|1---1---1---1---1---1---1---1--|1---1---1---1---1---1---1---1--|
  D|0---0---0---0---0---0---0---0--|0---0---0---0---0---0---0---0--|
  A|2---2---2---2---2---2---2---2--|2---2---2---2---2---2---2---2--|
  E|0---0---0---0---0---0---0---0--|0---0---0---0---0---0---0---0--|


    00:16
    A5                              D5
  e|-------------------------------|-------------------------------|
  B|-------------------------------|-------------------------------|
  G|-------------------------------|7---7---7---7---7---7---7---7--|
  D|7---7---7---7---7---7---7---7--|7---7---7---7---7---7---7---7--|
  A|7---7---9---7---7---7---9---7--|5---5---5---5---5---5---5---5--|
  E|5---5---5---5---5---5---5---5--|-------------------------------|
    Flew    from            Beach                               Didn't 
        in      Miami           B   O   A       C


    C5                              D5
  e|-------------------------------|-------------------------------|
  B|-------------------------------|-------------------------------|
  G|5---5---5---5---5---5---5---5--|7---7---7---7---7---7---7---7--|
  D|5---5---5---5---5---5---5---5--|7---7---7---7---7---7---7---7--|
  A|3---3---3---3---3---3---3---3--|5---5---5---5---5---5---5---5--|
  E|-------------------------------|-------------------------------|
            get to  bed last    night                           On


    A5                              D5
  e|-------------------------------|-------------------------------|
  B|-------------------------------|-------------------------------|
  G|-------------------------------|7---7---7---7---7---7---7---7--|
  D|7---7---7---7---7---7---7---7--|7---7---7---7---7---7---7---7--|
  A|7---7---7---7---7---7---7---7--|5---5---5---5---5---5---5---5--|
  E|5---5---5---5---5---5---5---5--|-------------------------------|
        the way the paper   bag was on  my      knee            Man 
  e|-------------------------------|-------------------------------|
  B|-------------------------------|-------------------------------|
  G|-------------------------------|-------------------------------|
  D|7-----------7-----------7------|12----------12----------12-----|
  A|7-----------7-----------7------|12----------12----------12-----|
  E|5-----------5-----------5------|10----------10----------10-----|



    C5                              D5
  e|-------------------------------|-------------------------------|
  B|-------------------------------|-------------------------------|
  G|5---5---5---5---5---5---5---5--|7---7---7---7---7---7---7---7--|
  D|5---5---5---5---5---5---5---5--|7---7---7---7---7---7---7---7--|
  A|3---3---3---3---3---3---3---3--|5---5---5---5---5---5---5---5--|
  E|-------------------------------|-------------------------------|
        I   had a   dreadful    flight  I'm back  the 
                                                in  U.  S.  S.  R.
  e|-------------------------------|-------------------------------|
  B|-------------------------------|-------------------------------|
  G|-------------------------------|-------------------------------|
  D|10----------10----------10-----|12----------12----------12-----|
  A|10----------10----------10-----|12----------12----------12-----|
  E|-8-----------8-----------8-----|10----------10----------10-----|


    00:29
    A                               C
  e|-------------------------------|-------------------------------|
  B|-------------------------------|-------------------------------|
  G|-------------------------------|-------------------------------|
  D|7---7---7---7---7---7---7---7--|10--10--10--10--10--10--10--10-|
  A|7---7---7---7---7---7---7---7--|10--10--10--10--10--10--10--10-|
  E|5---5---5---5---5---5---5---5--|-8---8---8---8---8---8---8---8-|
                                         You     know        you are, 
                                           don't   how  
                                                    lucky                                  
  e|-------------------------------|-------------------------------|
  B|-------------------------------|-------------------------------|
  G|----2-------0------------------|---5--------3------------------|
  D|----2-------2-------4----------|---5--------5-------7----------|
  A|0-----------------------3H4P3H4|3-----------------------6--H--7|
  E|-------------------------------|-------------------------------|



    D
  e|-------------------------------|-------------------------------|
  B|-------------------------------|-------------------------------|
  G|-------------------------------|-------------------------------|
  D|12--12--12--12--12--12--12--12-|12-----------------------------|
  A|12--12--12--12--12--12--12--12-|12-----------------------------|
  E|10--10--10--10--10--10--10--10-|10-\---------------------------|
                boy                     Back    in  U.  S.  S.  R.
                                                  the
  e|-------------------------------|-------------------------------|
  B|-------------------------------|-------------------------------|
  G|----7-------5------------------|-------------------------------|
  D|----7-------7-------9----------|-------------------------------|
  A|5-----------------------8--H--9|5------------------------------|
  E|-------------------------------|-------------------------------|



    A                                           E7
  e|-------------------------------|-------------------------------|
  B|-------------------------------|------------5-------5---5------|
  G|-------------------------------|------------7-------7---7------|
  D|7---7---7---7---7---7---7---7--|7---7--7----6-------6---6------|
  A|7---7---7---7---7---7---7---7--|7---7--7----7-------7---7------|
  E|5---5---5---5---5---5---5---5--|5---5--5-----------------------|
                                       D    D# E
  e|-------------------------------|---10---11--12-----------------|
  B|-------------------------------|---10---11--12-----------------|
  G|-------------------------------|---11---12--13-----------------|
  D|-------------------------------|-------------------------------|
  A|-------------------------------|-------------------------------|
  E|-------------------------------|-------------------------------|


    00:39
    A5      A6  A5          A6  A5  D5
  e|-------------------------------|-------------------------------|
  B|-------------------------------|-------------------------------|
  G|-------------------------------|7---7---7---7---7---7---7---7--|
  D|7---7---7---7---7---7---7---7--|7---7---7---7---7---7---7---7--|
  A|7---7---9---7---7---7---9---7--|5---5---5---5---5---5---5---5--|
  E|5---5---5---5---5---5---5---5-/|-------------------------------|
    Been        so  long    hardly  knew    the place           Gee
        away            I
                        
    C5                              D5
  e|-------------------------------|-------------------------------|
  B|-------------------------------|-------------------------------|
  G|5---5---5---5---5---5---5---5--|7---7---7---7------------------|
  D|5---5---5---5---5---5---5---5--|7---7---7---7-------7----------|
  A|3---3---3---3---3---3---3---3--|5---5---5---5---9------\7---5--|
  E|-------------------------------|-------------------------------|
        it's    to  be  back    home                            Leave
            good

    A5                              D5
  e|-------------------------------|-------------------------------|
  B|-------------------------------|-------------------------------|
  G|-------------------------------|7---7---7---7------------------|
  D|7---7---7---7---7---7---7---7--|7---7---7---7-------7----------|
  A|7---7---9---7---7---7---9---7--|5---5---5---5---9------\7---5--|
  E|5---5---5---5---5---5---5---5--|-------------------------------|
        it  till            to  unpack  my      case            Honey
                tomorrow

    C5                              D5
  e|-------------------------------|-------------------------------|
  B|-------------------------------|-------------------------------|
  G|5---5---5---5---5---5---5---5--|7---7---7---7---7---7---7---7--|
  D|5---5---5---5---5---5---5---5--|7---7---7---7---7---7---7---7--|
  A|3---3---3---3---3---3---3---3--|5---5---5---5---5---5---5---5--|
  E|-------------------------------|-------------------------------|
            disconnect      the phone.  I'm back the 
                                                in  U.  S.  S.  R.
    00:53  
    A5                              C5
  e|-------------------------------|-------------------------------|
  B|-------------------------------|-------------------------------|
  G|-------------------------------|-------------------------------|
  D|7---7---7---7---7---7---7---7--|10--10--10--10--10--10--10--10-|
  A|7---7---7---7---7---7---7---7--|10--10--10--10--10--10--10--10-|
  E|5---5---5---5---5---5---5---5--|-8---8---8---8---8---8---8---8-|
                                       You       know        you are, 
                                          don't   how
                                                     lucky 
  e|-------------------------------|-------------------------------|
  B|-------------------------------|-------------------------------|
  G|----2-------0------------------|---5--------3------------------|
  D|----2-------2-------4----------|---5--------5-------7----------|
  A|0-----------------------3H4P3H4|3-----------------------6--H--7|
  E|-------------------------------|-------------------------------|



    D5
  e|-------------------------------|-------------------------------|
  B|-------------------------------|-------------------------------|
  G|-------------------------------|-------------------------------|
  D|12--12--12--12--12--12--12--12-|12--12------12------12------12-|
  A|12--12--12--12--12--12--12--12-|12--12------12------12------12-|
  E|10--10--10--10--10--10--10--10-|10-\10------10------10------10-|
                boy                     Back    in  U.  S.      Back
                                                  the
  e|-------------------------------|-------------------------------|
  B|-------------------------------|-------------------------------|
  G|----7-------5------------------|-------------------------------|
  D|----7-------7-------9----------|-------------------------------|
  A|5-----------------------8--H--9|5------------------------------|
  E|-------------------------------|-------------------------------|




  e|-------------------------------|---------------|
  B|-------------------------------|---------------|
  G|-------------------------------|---------------|
  D|----10------10------10------10-|----10------10-|
  A|----12------12------12------12-|----12------12-|
  E|-------------------------------|---------------|
        in  U.  S.      Back    in  U.  S.  S.  R.
          the                     the

    A5      A6  A5
  e|-------------------------------|-------------------------------|
  B|-------------------------------|-------------------------------|
  G|-------------------------------|-------------------------------|
  D|7---7---7---7---7---7---7---7--|7---7---7---7---7---7---7---7--|
  A|7---7---9---7---7---7---7---7--|7---7---7---7---7---7---7---7--|
  E|5---5---5---5---5---5---5---5--|5---5---5---5---5---5---5---5--|
                                                        Well    the 

    01:05
    D5
  e|-------------------------------|-------------------------------|
  B|-------------------------------|-------------------------------|
  G|-------------------------------|-------------------------------|
  D|12--12--12--12--12--12--12--12|12---12--12--12--12--12--12--12-|
  A|12--12--12--12--12--12--12--12|12---12--12--12--12--12--12--12-|
  E|10--10--10--10--10--10--10--10|10---10--10--10--10--10--10--10-|
    Ukraine         girls   really  knock   me  out             They


    A5
  e|-------------------------------|-------------------------------|
  B|-------------------------------|-------------------------------|
  G|-------------------------------|-------------------------------|
  D|7---7---7---7---7---7---7---7--|7---7---7---7---7---7---7---7--|
  A|7---7---9---7---7---7---7---7--|7---7---7---7---7---7---7---7--|
  E|5---5---5---5---5---5---5---5--|5---5---5---5---5---5---5---5--|
    leave   the     West    behind                              And


    D5              C#5             C5              B5
  e|-------------------------------|-------------------------------|
  B|-------------------------------|-------------------------------|
  G|-------------------------------|-------------------------------|
  D|12--12--12--12--11--11--11--11-|10--10--10--10--9---9---9---9--|
  A|12--12--12--12--11--11--11--11-|10--10--10--10--9---9---9---9--|
  E|10--10--10--10---9---9---9---9-|-8---8---8---8--7---7---7---7--|
     Moscow         girls  make me  sing and     shout          that


    E7                              D7
  e|-------------------------------|-------------------------------|
  B|5---5---5---5---5---5---5---5--|3---3---3---3---3---3---3---3--|
  G|7---7---7---7---7---7---7---7--|5---5---5---5---5---5---5---5--|
  D|6---6---6---6---6---6---6---6--|4---4---4---4---4---4---4---4--|
  A|7---7---7---7---7---7---7---7--|5---5---5---5---5---5---5---5--|
  E|-------------------------------|-------------------------------|
    Georgia's        on my  my  my  my  my  my  my  my  my      mind
            always

    A5                              E7
  e|-------------------------------|-------------------------------|
  B|-------------------------------|----5---5---5---5---5---5---5--|
  G|-------------------------------|----7---7---7---7---7---7---7--|
  D|7---7---7---7---7---7---7---7--|----6---6---6---6---6---6---6--|
  A|7---7---7---7---7---7---7---7--|----7---7---7---7---7---7---7--|
  E|5---5---5---5---5---5---5---5--|-------------------------------|

    01::22
    SOLO

    A5                              D5
  e|-------------------------------|-------------------------------|
  B|13B1515-13B1515-13B1515-13B1515|13B1513B1513B15---------1515R13|
  G|-------------------------------|-------------------------------|
  D|-------------------------------|-------------------------------|
  A|-------------------------------|-------------------------------|
  E|-------------------------------|-------------------------------|



    C5                              D5
  e|-------------------------------|-------------------------------|
  B|--------15B17R15---------------|-------------------------------|
  G|----------------14--14------14-|----------------------------14-|
  D|-------------------------------|-------------------------------|
  A|-------------------------------|-------------------------------|
  E|-------------------------------|-------------------------------|


    A5                              D5
  e|-------------------------------|-------------------------------|
  B|13B15-R-1313B15----R13--13B15-R|14-B15--R--14-B-15---R--13-----|
  G|-------------------------------|-------------------------------|
  D|-------------------------------|-------------------------------|
  A|-------------------------------|-------------------------------|
  E|-------------------------------|-------------------------------|


    C5                              D5
  e|-------------------------------|-------------------------------|
  B|--------15B17R15---------------|-------------------------------|
  G|----------------14---14-----14-\----14\------------------------|
  D|-------------------------------|-------\12-10B11---------------|
  A|-------------------------------|-------------------------------|
  E|-------------------------------|-------------------------------|
                                        I'm back  the  
                                                in  U.  S.  S.  R.

    01:36
    A5                              C5
  e|-------------------------------|-------------------------------|
  B|-------------------------------|-------------------------------|
  G|-------------------------------|-------------------------------|
  D|7---7---7---7---7---7---7---7--|10--10--10--10--10--10--10--10-|
  A|7---7---7---7---7---7---7---7--|10--10--10--10--10--10--10--10-|
  E|5---5---5---5---5---5---5---5--|-8---8---8---8---8---8---8---8-|
                                       You       know        you are, 
                                          don't   how
                                                     lucky 
  e|-------------------------------|-------------------------------|
  B|-------------------------------|-------------------------------|
  G|----2-------0------------------|---5--------3------------------|
  D|----2-------2-------4----------|---5--------5-------7----------|
  A|0-----------------------3H4P3H4|3-----------------------6--H--7|
  E|-------------------------------|-------------------------------|

                              

    D5
  e|-------------------------------|-------------------------------|
  B|-------------------------------|-------------------------------|
  G|-------------------------------|-------------------------------|
  D|12--12--12--12--12--12--12--12-|12-----------------------------|
  A|12--12--12--12--12--12--12--12-|12-----------------------------|
  E|10--10--10--10--10--10--10--10-|10-\---------------------------|
                boy                     Back    in  U.  S.  S.  R.
                                                  the
  e|-------------------------------|-------------------------------|
  B|-------------------------------|-------------------------------|
  G|----7-------5------------------|-------------------------------|
  D|----7-------7-------9----------|-------------------------------|
  A|5-----------------------8--H--9|5------------------------------|
  E|-------------------------------|-------------------------------|



    A5      
  e|-------------------------------|-------------------------------|
  B|-------------------------------|-------------------------------|
  G|-------------------------------|-------------------------------|
  D|7---7---7---7---7---7---7---7--|7---7---7---7---7---7---7---7--|
  A|7---7---7---7---7---7---7---7--|7---7---7---7---7---7---7---7--|
  E|5---5---5---5---5---5---5---5--|5---5---5---5---5---5---5---5--|
                                                        Well    the
  e|-------------------------------|-------------------------------|
  B|-------------------------------|-------------------------------|
  G|-------------------------------|-------------------------------|
  D|-------------------------------|-------------------------------|
  A|-------------------------------|0-------2-------3-------4------|
  E|-------------------------------|-------------------------------|


    01:46
    D5
  e|-------------------------------|-------------------------------|
  B|-------------------------------|-------------------------------|
  G|-------------------------------|-------------------------------|
  D|12--12--12--12--12--12--12--12-|12--12--12--12--12--12--12--12-|
  A|12--12--12--12--12--12--12--12-|12--12--12--12--12--12--12--12-|
  E|10--10--10--10--10--10--10--10-|10--10--10--10--10--10--10--10-|
    Ukraine         girls   really  knock   me  out             They
    (Oooooooooooooooooooooooooooooooooooooooooooooooooooooooooooooo
  e|-------------------------------|-------------------------------|
  B|-------------------------------|-------------------------------|
  G|-------------------------------|-------------------------------|
  D|12---12---------12---12--------|12---12---------12---12--------|
  A|12---12---------12---12--------|12---12---------12---12--------|
  E|10---10---------10---10--------|10---10---------10---10--------|



    A5
  e|-------------------------------|-------------------------------|
  B|-------------------------------|-------------------------------|
  G|-------------------------------|-------------------------------|
  D|7---7---7---7---7---7---7---7--|7---7---7---7---7---7---7---7--|
  A|7---7---9---7---7---7---7---7--|7---7---7---7---7---7---7---7--|
  E|5---5---5---5---5---5---5---5--|5---5---5---5---5---5---5---5--|
    leave   the     West    behind                              and
    ooooooooooooooooooooooooooooooooooooooooooooohhhhhhhhhh)


    D5              C#5             C5              B5              
  e|-------------------------------|-------------------------------|
  B|-------------------------------|-------------------------------|
  G|-------------------------------|-------------------------------|
  D|12--12--12--12--11-11---11--11-|10--10--10--10--9---9---9---9--|
  A|12--12--12--12--11-11---11--11-|10--10--10--10--9---9---9---9--|
  E|10--10--10--10---9--9----9---9-|-8---8---8---8--7---7---7---7--|
    Moscow          girls  make me  sing and     shout          that
    (Oooooooooooooooooooooooooooooooooooooooooooooooooooooooooooooo


    E7                              D7
  e|-------------------------------|-------------------------------|
  B|5---5---5---5---5---5---5---5--|3---3---3---3---3---3---3---3--|
  G|7---7---7---7---7---7---7---7--|5---5---5---5---5---5---5---5--|
  D|6---6---6---6---6---6---6---6--|4---4---4---4---4---4---4---4--|
  A|7---7---7---7---7---7---7---7--|5---5---5---5---5---5---5---5--|
  E|-------------------------------|-------------------------------|
    Georgia's       on  my  my  my  my  my  my  my  my  my      mind
            always
    ooooooooooooooooooooooooooooooooooooooooooooooooooooohhhhhh

    A5                              E7
  e|-------------------------------|-------------------------------|
  B|-------------------------------|----5---5---5---5---5---5---5--|
  G|-------------------------------|----7---7---7---7---7---7---7--|
  D|7---7---7---7---7---7---7---7--|----6---6---6---6---6---6---6--|
  A|7---7---7---7---7---7---7---7--|----7---7---7---7---7---7---7--|
  E|5---5---5---5---5---5---5---5--|-------------------------------|
                                Oh,                             Show

    02:03
    A5                              D5
  e|-------------------------------|-------------------------------|
  B|-------------------------------|-------------------------------|
  G|-------------------------------|7---7---7---7---7---7---7---7--|
  D|7---7---7---7---7---7---7---7--|7---7---7---7---7---7---7---7--|
  A|7---7---9---7---7---7---9---7--|5---5---5---5---5---5---5---5--|
  E|5---5---5---5---5---5---5---5--|-------------------------------|
        me  round   snow    mountains   down    South           take
                your    peaked      way
  e|1717171717171717171717171717171717171717171717171717171717171717
  B|-------------------------------|-------------------------------|
  G|-------------------------------|-------------------------------|
  D|-------------------------------|-------------------------------|
  A|-------------------------------|-------------------------------|
  E|-------------------------------|-------------------------------|



    C5                              D5
  e|-------------------------------|-------------------------------|
  B|-------------------------------|-------------------------------|
  G|5---5---5---5---5---5---5---5--|7---7---7---7---7---7---7---7--|
  D|5---5---5---5---5---5---5---5--|7---7---7---7---7---7---7---7--|
  A|3---3---3---3---3---3---3---3--|5---5---5---5---5---5---5---5--|
  E|-------------------------------|-------------------------------|
        me  to  your            farm                            Let
                    daddy's
  e|1717171717171717171717171717171717171717171717171717171717171717
  B|-------------------------------|-------------------------------|
  G|-------------------------------|-------------------------------|
  D|-------------------------------|-------------------------------|
  A|-------------------------------|-------------------------------|
  E|-------------------------------|-------------------------------|



    A5                              D5
  e|-------------------------------|-------------------------------|
  B|-------------------------------|-------------------------------|
  G|-------------------------------|7---7---7---7---7---7---7---7--|
  D|7---7---7---7---7---7---7---7--|7---7---7---7---7---7---7---7--|
  A|7---7---9---7---7---7---9---7--|5---5---5---5---5---5---5---5--|
  E|5---5---5---5---5---5---5---5--|-------------------------------|
        me  hear    balalaikas      ringing     out             Come
                your
  e|1717171717171717171717171717171717171717171717171717171717171717
  B|-------------------------------|-------------------------------|
  G|-------------------------------|-------------------------------|
  D|-------------------------------|-------------------------------|
  A|-------------------------------|-------------------------------|
  E|-------------------------------|-------------------------------|



    C5                              D5
  e|-------------------------------|-------------------------------|
  B|-------------------------------|-------------------------------|
  G|5---5---5---5---5---5---5---5--|7---7---7---7---7---7---7---7--|
  D|5---5---5---5---5---5---5---5--|7---7---7---7---7---7---7---7--|
  A|3---3---3---3---3---3---3---3--|5---5---5---5---5---5---5---5--|
  E|-------------------------------|-------------------------------|
        and keep    comrade     warm,   I'm back the U. S.  S.  R.
                your                            in 
  e|1717171717171717171717171717171717171717171717171717171717-\---|
  B|-------------------------------|-------------------------------|
  G|-------------------------------|-------------------------------|
  D|-------------------------------|-------------------------------|
  A|-------------------------------|-------------------------------|
  E|-------------------------------|-------------------------------|


    02:16
    A5                              C5
  e|-------------------------------|-------------------------------|
  B|-------------------------------|-------------------------------|
  G|-------------------------------|-------------------------------|
  D|7---7---7---7---7---7---7---7--|10--10--10--10--10--10--10--10-|
  A|7---7---7---7---7---7---7---7--|10--10--10--10--10--10--10--10-|
  E|5---5---5---5---5---5---5---5--|-8---8---8---8---8---8---8---8-|        
                Hey!                     You     know        you are, 
                                          don't   how
                                                     lucky 
  e|-------------------------------|-------------------------------|
  B|-------------------------------|-------------------------------|
  G|----2-------0------------------|---5--------3------------------|
  D|----2-------2-------4----------|---5--------5-------7----------|
  A|0-----------------------3H4P3H4|3-----------------------6--H--7|
  E|-------------------------------|-------------------------------|



    D5
  e|-------------------------------|-------------------------------|
  B|-------------------------------|-------------------------------|
  G|-------------------------------|-------------------------------|
  D|12--12--12--12--12--12--12--12-|12-----------------------------|
  A|12--12--12--12--12--12--12--12-|12-----------------------------|
  E|10--10--10--10--10--10--10--10-|10-\---------------------------|
                boys                    Back    in  U.  S.  S.  R.
                                                  the
  e|-------------------------------|-------------------------------|
  B|-------------------------------|-------------------------------|
  G|----7-------5------------------|-------------------------------|
  D|----7-------7-------9----------|-------------------------------|
  A|5-----------------------8--H--9|5------------------------------|
  E|-------------------------------|-------------------------------|



    A5                                  D5  D#5 E5
  e|-------------------------------|----10- 11--12-----------------|
  B|-------------------------------|----10--11--12-----------------|
  G|-------------------------------|----11--12--13-----------------|
  D|7---7---7---7---7---7---7---7--|----12--13--14-----------------|
  A|7---7---7---7---7---7---7---7--|----12--13--14-----------------|
  E|5---5---5---5---5---5---5---5--|----10--11--12-----------------|
                    Oh,                 Let me  tell  you honey      
                                                   
    02:27
    A5
  e|-------------------------------|-------------------------------|
  B|-------------------------------|-------------------------------|
  G|----2-------0--------------5/6-|----2-------0------------------|
  D|----2-------2-------4----------|----2-------2-------4----------|
  A|0----------------------/4------|0-----------------------3B4----|
  E|-------------------------------|-------------------------------|
              Yeah  back                I'm  back  in  the U. S. S.           
                 I'm                               (Ooooooooooooooo
                                                   

  e|-------------------------------|-------------------------------|
  B|-------------------------------|-------------------------------|
  G|----2-------0------------------|---2--------0------------------|
  D|----2-------2-------4----------|---2--------2-------4----------|
  A|0-----------------------3B4----|0-----------------------3B4----|
  E|-------------------------------|-------------------------------|
    R.                          Yeah,  souvenir
    ooooooooooooooooooooooooooooooooooooooooooooooooooooooooooooooo


                                 
  e|-------------------------------|-------------------------------|
  B|-------------------------------|-------------------------------|
  G|----2-------0------------------|----2-------0------------------|
  D|----2-------2-------4----------|----2-------2-------4----------|
  A|0-----------------------3B4----|0-----------------------3B4----|
  E|-------------------------------|-------------------------------|
                        Yeaaaaaaaaahhh         in the U. S. S. R.
    ooooooooooooooooooooooooooooooooooooooooooooooooooooooooooooooo



    
  e|-------------------------------|-------------------------------|
  B|-------------------------------|-------------------------------|
  G|2------------------------------|-------------------------------|
  D|2------------------------------|-------------------------------|
  A|0------------------------------|-------------------------------|
  E|-------------------------------|-------------------------------|



Lyrics


  Flew in from Miami Beach BOAC
  Didn't get to bed last night
  On the way the paper bag was on my knee
  Man I had a dreadful flight
  I'm back in the U.S.S.R.
  You don't know how lucky you are boy
  Back in the U.S.S.R.

  Been away so long I hardly knew the place
  Gee it's good to be back home
  Leave it till tomorrow to unpack my case
  Honey disconnect the phone
  I'm back in the U.S.S.R.
  You don't know how lucky you are boy
  Back in the U.S.S.R.

  Well the Ukraine girls really knock me out
  They leave the West behind
  And Moscow girls make me sing and shout
  That Georgia's always on my mind.

  I'm back in the U.S.S.R.
  You don't know how lucky you are boys
  Back in the U.S.S.R.

  Show me round your snow peaked mountains way down south
  Take me to your daddy's farm
  Let me hear your balalaika's ringing out
  Come and keep your comrade warm.
  I'm back in the U.S.S.R.
  You don't know how lucky you are boys
  Back in the U.S.S.R.




********************************************************************

| B  Bend
| R  Release
| /  slide up
| \  slide down
| H  hammer-on
| P  pull-off
| ~  vibrato
| +  harmonic
| x  Mute note
| .  play note like a dot in standard notation
| ^  ties two notes together
| (. Pause
                
*******************************************************************             
Suggest correction
comments
print report bad tab
6 comments total. Showing first comments.
+2 reply
Picarddelta 10 Jan 11, 2005 07:00 PM

Creative, you actually TABBED it, unlike the othewr geeks who just threw in a bunch of chords...

+2 reply
JimPrenier_11 10 Nov 05, 2007 04:09 PM

Nice tab! Beatles Rock
R.I.P John Lennon and George Harrison

+1 reply
pinkfloydrock 10 Nov 10, 2008 07:49 PM

love the solo 4 this

guest
You may want to rate the tab now too:
select rating
Wanna post a correction for this tab? Suggest correction