Oops, an error
Loading. Please wait.

Beatles For Sale Chords

98,882 views 75 this week
1 commentread comment
1 2 3 4 5
accurate
x 6
add to favorites
launch autoscroll
font size
0
reset
transpose
0
reset
simplify chords
display chords
guitar tuner
Tab Pro tools
  • play this tab
  • loop segment
  • change instrument
  • show fretboard
  • metronome
×
Best way to learn
"Beatles For Sale"
Autoscroll
slow
fast
+/-
esc
set tempo
stop
Beatles For Sale Album

1) No reply
2) I'm a loser
3) Baby's in black
4) Rock and Roll Music
5) I'll follow the sun
6) Mr. Moonlight
7) Kansas City/ Hey Hey Hey Hey
8) Eight days a week
9) Words of love
10) Honey Don't
11) Every Little Thing
12) I Don't Want to spoil the party
13) What you're doing
14) Everybody's trying to be my baby

=============================================================================

No Reply
		           John Lennon &
       		          Paul McCartney

HOW TO FINGER THE CHORDS:
   C	  D7	  G6	  G	  Em	  Bm	 Cmaj7	  Am7	  B7	G6add9
   o o	  o	  oooo    ooo	o  ooo		   ooo   o	    o
||||*|	||||*|	||||||  ||||||	||||||	||||||	||||||  ||||*|	||*|||	||||||
||*|||	|||*|*	|*||||  |*||||	|**|||	|||||*	||*|||  ||**|| 	|*|*|*	|***||
|*||||	||||||	*|||||  *||||*	||||||	||||*|	**||||  |||||*	||||||	*|||**
					||**||
The fingering for the G6add9 is a bit awkward so you may want to just
play it as a G major chord, although it doesn't sound as good.


-VERSE 1-
n.C.                 C			       D7
This happened once before  When I came to your door
     G6
No reply
                    C			    D7
They said it wasn't you  But I saw you peep through
     G
Your window
           Em       Bm
I saw the light
           Cmaj7    Bm
I saw the light
                   Am7			     D7
I know that you saw me  'Cause I looked up to see
     G
Your face

-VERSE 2-
               C			     D7
I tried to telephone  They said you were not home
	 G6
That's a lie
			   C			D7
'Cause I know where you've been  I saw you walk in
     G
Your door
	  Em	Bm
I nearly died
	  Cmaj7    Bm
I nearly died

  Am7		     D7
'Cause you walked hand in hand  With another man
      G
In my place
(Go to CODA after second time through VERSE 2)

-BRIDGE-
	  G        B7		 E
If I were you  I'd realize  that I
	 Am	    C	      G
Love you more  than any other guy
	    G	      B7	 E
And I'll forgive  the lies  that I
	Am	       C	    G
Heard before  when you gave me no reply

(Repeat VERSE 2)

CODA
      Em    Bm
No reply
      Cmaj7   G6add9
No reply


I'm a Loser.
(Lennon/McCartney)

      Am7            D7
I'm a loser,   I'm a loser,
        Am7          F       D7
And I'm not what I appear to be.


G          Dm          F           G
Of all the love I have won or have lost
             Dm            F          G
There is one love I should never have crossed.
          Dm        F          G
She was a girl in a million my friend,
              Dm              F          G
I should have known she would win in the end.


Chorus:
     Am7 D7        Am7                D7
I'm a loser, and I lost someone who's near to me
      G  Em          Am7          F       D7
I'm a loser, and I'm not what I appear to be.


Although I laugh and I act like a clown
Beneath this mask I am wearing a frown.
My tears are falling like rain from the sky
Is it for her or myself that I cry

Chorus.

What have I done to deserve such a fate
I realise I have left it too late.
And so it's true pride comes before a fall
I'm telling you so that you don't lose all.

Chorus.


Baby's in black


[E]Oh dear, [B7]what can I do, [A]baby's in black, and [B7]I'm feeling blue
Tell me [E]oh, [A]what can I [E]do  [B7]
[E]She thinks of him and [E7]so she dresses in [A]black
And [A]though he'll never come [E]back [B7]she's dressed in [E]black

[E]Oh dear, [B7]what can I do, [A]baby's in black, and [B7]I'm feeling blue
Tell me [E]oh, [A]what can I [E]do    [B7]
[E]I think of her, but [E7]she thinks only of [A]him
And [A]though it's only a [E]whim [B7]she thinks of [E]him

[C#m]Oh how [F#]long will it take /[A] till she [B7]sees the mistake she has

[E]Oh dear, [B7]what can I do [A]baby's in black, and [B7]I'm feeling blue
Tell me [E]oh, [A]what can I [E]do  [B7]
[E]She thinks of him and [E7]so she dresses in [A]black
And [A]though he'll never come [E]back [B7]she's dressed in [E]black

[E]Oh dear, [B7]what can I do [A]baby's in black, and [B7]I'm feeling blue
Tell me [E]oh, [A]what can I [E]do  [B7]



ROCK AND ROLL MUSIC
written and performed by Chuck Berry
tab transcribed by Collins Crapo

A7
Just let me hear some of that...

CHORUS:
D
Rock and roll music
Any old way you choose it
           G
It's got a back beat, you can't lose it
D
Any old time you use it
     A7
It's gotta be rock and roll music
                        D
If you wanna dance with me
A7                      D
If you wanna dance with me

Verse 1:
                       A
I have no kick against modern jazz
A7                          D
  Unless you try to play it too darn fast
                       G
I lose the beauty of a melody
                            A7
Until it sounds just like a symphony
That's why I go for that...

(chorus)
Verse 2:
I took my love on over 'cross the tracks
So she could hear a man a-wailin' sax
I must admit they had a rockin' band
And they were blowin' like a hurrican'
That's why I go for that...
(chorus)

Verse 3:
Way down south they gave a jubilee
And Georgia folks, they had a jamboree
They're drinkin' home brew from a wooden cup
The folks dancin' got all shook up
And started playin' that...

(chorus)

Verse 4:
Don't get to hear 'em play a tango
I'm in no mood to take a mambo
It's way too early for the congo
So keep on rockin' that piano
So I can hear some of that...

  I'll Follow the Sun
  Lennon & McCartney
    .........................................
    A        G7          D            E7
    One day, you'll look, to see I've gone
          D          Bm    E7       A7         D
    For tomorrow may rain, so, I'll follow the sun

    A         G7          D          E7
    Some day, you'll know, I was the one
          D          Bm     E7      A7         D
    But tomorrow may rain, so, I'll follow the sun

  D  D7         G7                 Gm                D
 -->And now the time has come, and so my love I must go
  D7             G7             Gm                  D
    And though I lose a friend, in the end you will know,
    Em7
    Oh....oh.....

    A        G7           D           E7
    One day, you'll find, that I have gone
          D          Bm     E7     A7         D
    But tomorrow may rain so, I'll follow the sun


  I'LL FOLLOW THE SUN
 by John Lennon and Paul McCartney


  [C] [F] [C]

[G] One day [F7] you'll look [C] to see I've [D7] gone.
For to[C]morrow may [Am/B] rain, so [D7] I'll [G7] follow the [C] sun. [F] [C]

[G] Some day [F7] you'll know [C] I was the [D7] one.
But to[C]morrow may [Am/B] rain, so [D7] I'll [G7] follow the [C] sun.

  [C7] And now the [F7] time has come
  And [Fm6] so my love I must [C] go.
  [C7] And though I [F7] lose a friend,
  [Fm6] In the end you will [C] know, [Dm7] oh.

[G] One day [F7] you'll find [C] that I have [D7] gone.
For to[C]morrow may [Am/B] rain so [D7] I'll [G7] follow the [C] sun. [F] [C]


  [G]       [F7]      [C]       [D7]
(e) |----3----|----5----|-----8-7-|-10------|
(B) |-3-------|-4-------|---8-----|---------|
(G) |---------|---------|---------|---------|
(D) |---------|---------|---------|---------|
(A) |---------|---------|---------|---------|
(E) |---------|---------|---------|---------|
      1 2 3 4   1 2 3 4   1 2 3 4   1 2 3 4

Yes, to[C]morrow may [Am/B] rain, so [D7] I'll [G7] follow the [C] sun.

  Chorus

[G] One day [F7] you'll find [C] that I have [D7] gone.
For to[C]morrow may [Am/B] rain, so [D7] I'll [G7] follow the [C] sun. [F] [C]


MR. MOONLIGHT

By: The Beatles
Album: Beatles for sale (1964), also Anthology 1, DC
Transcribed by Shad0w 

I couldn't find any music to this in my music books so I chorded
this myself with 'dsChordFinder'.  This is the 'Beatles for Sale'
version, this song is also released on the album Anthology 1
but it has not got 'And now she is mine...' instead
replacing it with another 'On the nights you don't come my way...'.
It is in F# on the record but I transposed it to G for easier
reading.
Ask me any beatles song...,
Send E-Mail to: shadow_jolt@hotmail.com


Mr.......Mo-onlight,
G
You came to me, one summer night
C                                G
And from your beam you made my dream
Em
And from the word, you sent my girl
C                           G
And from above you sent us love,


C                    G              E
And now she is mine, I think you're fine
	 A        D             G
Cause we love you, Mr. Moonlight.
G                             G
Mr. Moonlight, come again please,
G                                    G
Here I am on my knees begging if you please,


C                                    G                        E
On the nights you don't come my way, I pray and pray for each day
	  A       D          G
Cause we love you, Mr.Moonlight.


SOLO


C                                    G                        E
On the nights you don't come my way, I pray and pray for each day
	  A       D          G
Cause we love you, Mr.Moonlight.
G              G                G
Mr. Moonlight, come again please,
G                    G               G
Here I am on my knees begging if you please,


C                                       G                           E
On the nights you don't come my way, whoa, I pray and pray for each day
	  A       D           G
Cause we love you, Mr. Moonlight.


MEDLEY: KANSAS CITY (Leiber/Stoller)
/HEY HEY HEY HEY (Little Richard)
performed by Little Richard
tab transcribed by Collins Crapo 

                    G
I'm goin' to Kansas City
Kansas City, here I come
                    C
I'm goin' to Kansas City
                    G
Kansas City, here I come
            D
They've got crazy women there and
C                         G
 I'm goin' down to get me some

Well, I might take a train, I might take a plane
But if I have to walk, I'm goin' just the same
                    C
I'm goin' to Kansas City
                    G
Kansas City, here I come
            D
They've got crazy women there and

C                         G
 I'm goin' down to get me some

Verse 2:
Well bye, bye bye baby bye
Wooo so long, bye bye baby I'm gone
Well bye,  bye bye baby bye

(instrumental; same pattern as verses)

Verse 3:
I'm a holl'rin' and screamin'
Baby please come home
Well, I'm a holl'rin' and screamin'
Don't you leave me all alone
Well, I'm a holl'rin' and I'm screamin'
Baby please come home

(repeat verse 2)

Verse 4:
Hey hey hey hey
I miss my baby, I don't mean maybe
I miss my baby, I don't mean maybe
I miss my baby, I don't mean maybe
I'll miss my baby until the day I die


                       Eight Days A Week

       Words and Music by John Lennon and Paul McCartney

    Typed and Transcribed by Jordan Kelly jordan@webzone.net

Chords Used in this Song

    EADGBE

D-  XX0232
E-  022100
G-  320001
Bm- X24432
A- X02220
B- X2444x


Intro

(fade in)

(let ring)

   D                            E

E|--0---------0-----0-------0--|-0--------0----0------0--------|
B|-10--------10----12------10--|12-------12---14-----12--------|
G|-11--------11----11------11--|13-------13---13-----13--------|
D|-12--------12----12------12--|14-------14---14-----14--------|
A|--------------------------- -|-------------------------------|
E|-----------------------------|-------------------------------|

   G                            D

E|--0---------0-----0-------0--|-0--------0----0------0--------|
B|-15--------15----17------15--|10-------10---12-----10--------|
G|-16--------16----16------16--|11-------11---13-----11--------|
D|-17--------17----17------17--|12-------12---14-----12--------|
A|-----------------------------|-------------------------------|
E|-----------------------------|-------------------------------|

Verse 1

D                 E            G                   D

Oo, I need your love, babe,  guess you know it's true

D                  E           G                 D

Hope you need my love, babe,  just like I need you

Chorus 1

 Bm           G         Bm           E

Hold me,    love me,   Hold me,     love me,

   D                      E          G                 D

I ain't got noth-in' but love babe,    Eight Day's A Week

Verse 2

D                E          G              D

Love you every day, girl,  always on my mind

D                E          G                   D

One thing I can say, girl,  love you all the time

Chorus 2

Bm           G         Bm           E

Hold me,    love me,   Hold me,     love me,

   D                      E          G                 D

I ain't got noth-in' but love girl,    Eight Day's A Week

Bridge

A                       Bm

Eight days a week      I love you

E                    G              A

Eight days a week is not enough to show I care

[Repeat Verse 1]

[Repeat Chorus 1]

[Repeat Bridge]

[Repeat Verse 2]

[Repeat Chorus 1]

G               D

Eight Days A Week

G               D

Eight Days A Week

G               D

Eight Days A Week


Words of Love
MUSIC BY: Buddy Holly (Covered by the Beatles on Beatles For Sale)
TABBED BY: The Beatles Central Team (jpgr_beatles@yahoo.com)


Intro:

   A                                 D               E
E|-5-------5-------0-------0-------|-----2-----------0-----------0--|
B|-5-------5-------2/5-----5---2---|---------3-----------2---0------|
G|---------------------------------|-2-----------2------------------|
D|---------------------------------|--------------------------------|
A|---------------------------------|--------------------------------|
E|---------------------------------|--------------------------------|
   ^       ^       ^       ^         ^       ^       ^       ^

Repeat this figure two more times, then play this:

   A                                 D               E
E|-5-------5-----5-0---0-----------|-----2-----------0--------------|
B|-5-------5-----5-5---5-------0---|---------3-----------2---4------|
G|---------------------------------|-2-----------2---------------1--|
D|---------------------------------|--------------------------------|
A|---------------------------------|--------------------------------|
E|---------------------------------|--------------------------------|
   ^       ^       ^       ^         ^       ^       ^       ^


Verse 1:

 A                D    E
Hold me close and     tell me how you
 A                D    E
feel                  Tell me love is
 A                D    E
real                  um  um
 A                D    E
um                um


Verse 2:

 A                D    E
Words of love you     whisper soft and
 A                D    E
true                  Darling I love you
 A                D    E
real                  um  um

Solo:

   A                                 D               E
   um                                um
E|---------------------------------|-----------------4-------7------|
B|---------------------------------|-----------------5-------9------|
G|---------------------------------|--------------------------------|
D|---------------------------------|--------------------------------|
A|---------------------------------|--------------------------------|
E|---------------------------------|--------------------------------|
   ^       ^       ^       ^         ^       ^       ^       ^
   A                                 D               E
E|-9-------5-------0-------5-------|-2/5---------5---4/7-----7/9----|
B|-10------5-------2-------5-------|-3/7---------7---5/9-----9/10---|
G|---------------------------------|--------------------------------|
D|---------------------------------|--------------------------------|
A|---------------------------------|--------------------------------|
E|---------------------------------|--------------------------------|
   ^       ^       ^       ^         ^       ^       ^       ^
   A                                 D               E
E|-9-------5-------0-------5-------|-2/5---------5---4/7-----7/9----|
B|-10------5-------2-------5-------|-3/7---------7---5/9-----9/10---|
G|---------------------------------|--------------------------------|
D|---------------------------------|--------------------------------|
A|---------------------------------|--------------------------------|
E|---------------------------------|--------------------------------|
   ^       ^       ^       ^         ^       ^       ^       ^
   A                                 D               E
E|-9-------5-------0-------5-------|-2/5---------5---4/7-----7------|
B|-10------5-------2-------5-------|-3/7---------7---5/9-----9------|
G|---------------------------------|--------------------------------|
D|---------------------------------|--------------------------------|
A|---------------------------------|--------------------------------|
E|---------------------------------|--------------------------------|
   ^       ^       ^       ^         ^       ^       ^       ^
    A                                 D               E
E|-5-------5-------0-------0-------|-----2-----------0-----------0--|
B|-5-------5-------2/5-----5---2---|---------3-----------2---0------|
G|---------------------------------|-2-----------2------------------|
D|---------------------------------|--------------------------------|
A|---------------------------------|--------------------------------|
E|---------------------------------|--------------------------------|
   ^       ^       ^       ^         ^       ^       ^       ^
   A                                 D               E
E|---------------------------------|-----2-------2---0--------------|
B|-2-------2-------2-------2-----2-|-----3-------3-------2---0---0--|
G|-2-------2-------2-------2-----2-|-2------------------------------|
D|-2-------2-------2-------2-----2-|--------------------------------|
A|---------------------------------|--------------------------------|
E|---------------------------------|--------------------------------|
   ^       ^       ^       ^         ^       ^       ^       ^
   A                                 D               E
E|---------------------------------|-----2-------2---0--------------|
B|-2-------2-------2-------2-----2-|-----3-------3-------2---0---0--|
G|-2-------2-------2-------2-----2-|-2------------------------------|
D|-2-------2-------2-------2-----2-|--------------------------------|
A|---------------------------------|--------------------------------|
E|---------------------------------|--------------------------------|
   ^       ^       ^       ^         ^       ^       ^       ^
   A                                 D               E
E|---------------------------------|-----2-------2---0--------------|
B|-2-------2-------2-------2-----2-|-----3-------3-------2---0---0--|
G|-2-------2-------2-------2-----2-|-2------------------------------|
D|-2-------2-------2-------2-----2-|--------------------------------|
A|---------------------------------|--------------------------------|
E|---------------------------------|--------------------------------|
   ^       ^       ^       ^         ^       ^       ^       ^
    A                                 D               E
E|-5-------5-------0-------0-------|-----2-----------0-----------0--|
B|-5-------5-------2/5-----5---2---|---------3-----------2---0------|
G|---------------------------------|-2-----------2------------------|
D|---------------------------------|--------------------------------|
A|---------------------------------|--------------------------------|
E|---------------------------------|--------------------------------|
   ^       ^       ^       ^         ^       ^       ^       ^

Verse 3:

 A                  D         E
Let me hear you say      the words I long to
 A                  D         E
hear                         Darling when you're
 A                  D         E
near                  um  um
 A                  D         E
um                 um


Verse 4:

 A                  D         E
Words of love you            whisper soft and
 A                  D         E
true                         Darling I love you
 A                  D         E
real                          um  um
 A                  D         E
um                 um


Coda:

   A                                 D               E
   um                                um
E|---------------------------------|-----2-------2---0-----------0--|
B|-2-------2-------2-------2-------|-----3-------3-------2---0------|
G|-2-------2-------2-------2-------|-2------------------------------|
D|-2-------2-------2-------2-------|--------------------------------|
A|---------------------------------|--------------------------------|
E|---------------------------------|--------------------------------|
   ^       ^       ^       ^         ^       ^       ^       ^


A                                 D               E
   um                                Ah
E|-5-------5-------0---0---0-----0-|-----2-----------0-----------0--|
B|-5-------5-------2---5---5-------|---------3-----------2---0------|
G|---------------------------------|-2-----------2------------------|
D|---------------------------------|--------------------------------|
A|---------------------------------|--------------------------------|
E|---------------------------------|--------------------------------|
   ^       ^       ^       ^         ^       ^       ^       ^
   A                                 D               E
   Ah                                Ah
E|-5-------5-------0---0---0-----0-|-----2-----------0-----------0--|
B|-5-------5-------2---5---5-------|---------3-----------2---0------|
G|---------------------------------|-2-----------2------------------|
D|---------------------------------|--------------------------------|
A|---------------------------------|--------------------------------|
E|---------------------------------|--------------------------------|


Honey Dont

by Perkins, as performed by the Beatles on live at the BBC.

submitted by:  jsmythe@engr.csulb.edu

Verse 1.

E
Well how come you say you will when you wont
C
Say you do baby when you dont
E
Tell me honey how do you feel
C
Tell the truth now is love real

Chorus:
    B                  E
but ah-a honey dont    well honey dont
E                                      A
yeah honey dont    well honey dont     yeah honey dont
B                          A          E
say you will when you wont ah-a honey dont


Verse 2 (Same chord progression as verse 1)

Well I luv you baby and I want you to know
I like the way you wear your clothes
Everything about you is so dog-gone sweet
You got that sand all over your feet

Chorus

Verse 3 (Same chords as verse 1)

Well I love you baby on a Saturday night
Sunday morning it dont feel right
You been out painting the town
ah-a honey been steppin around

Chorus

Every Little Thing
MUSIC BY: The Beatles (From the Beatles for Sale album)
TABBED BY: The Beatles Central Team (jpgr_beatles@yahoo.com)


Intro:

   A                                 A       E
E|---------0-0-----0-----0-----0---|-0-0-----0----------------------|
B|---------0-0-----0-----0-----0---|-0-0-----3----------------------|
G|---------6/7-----6-----4-----2---|-2/4-----4----------------------|
D|---------------------------------|--------------------------------|
A|---------------------------------|--------------------------------|
E|---------------------------------|--------------------------------|
   ^       ^       ^       ^         ^       ^       ^       ^


Verse 1:

A                   D    E   A                     G  D    A
When I'm walking beside her    People tell me I'm lucky
B      B7/A        E/G#      A                  D    E
Yes, I know I'm a lucky guy    I remember the first time
A                 G   D    A    B       B7/A     E/G#      A
I was lonely without her       Yes I'm thinking about her now


Chorus:(This tab is the Chorus Figure)

   A                                 G
  Every little                      thing she does
E|-9-------------------------------|--9\7--------7-------7---7------|
B|-10------------------------------|-10\8--------8-------8---8------|
G|-9-------------------------------|--9\7--------7-------7---7------|
D|---------------------------------|--------------------------------|
A|---------------------------------|--------------------------------|
E|---------------------------------|--------------------------------|
   ^       ^       ^       ^         ^       ^       ^       ^
                                    A


 she does for                      me yeah
E|-9-------------------------------|-7/9-------------7/9------------|
B|-10------------------------------|-8/10------------8/10-----------|
G|-9-------------------------------|-7/9-------------7/9------------|
D|---------------------------------|--------------------------------|
A|---------------------------------|--------------------------------|
E|---------------------------------|--------------------------------|
   ^       ^       ^       ^         ^       ^       ^       ^
  A                                  G
  And you know the                  things she does
E|-9-------------------------------|--9\7--------7-------7---7------|
B|-10------------------------------|-10\8--------8-------8---8------|
G|-9-------------------------------|--9\7--------7-------7---7------|
D|---------------------------------|--------------------------------|
A|---------------------------------|--------------------------------|
E|---------------------------------|--------------------------------|
   ^       ^       ^       ^         ^       ^       ^       ^
                                    A
  she does for                      me, woo
E|-9-------------------------------|-7/9-------------7/9------------|
B|-10------------------------------|-8/10------------8/10-----------|
G|-9-------------------------------|-7/9-------------7/9------------|
D|---------------------------------|--------------------------------|
A|---------------------------------|--------------------------------|
E|---------------------------------|--------------------------------|
   ^       ^       ^       ^         ^       ^       ^       ^


Verse 2:

A                      D  E       A                     G    D    A
When I'm with her I'm happy      Just to know that she loves me
B      B7/A           E/G#        A                          D   E
Yes, I know that she loves me now    There is one thing I'm sure of
A                  G  D   A   B    B7/A           E/G#      A
I will love her forever      For I know love will never die


Chorus:(With Chorus Figure)

A             G                             A
Every little thing she does    she does for me, yeah
                  G                             A
And you know the things she does   she does for me, woo


Solo:

   A                                 D       E
E|---------0-0-----0-----0-----0---|-0-0-----0----------------------|
B|---------0-0-----0-----0-----0---|-0-0-----3----------------------|
G|---------6/7-----6-----4-----2---|-2/4-----4----------------------|
D|---------------------------------|--------------------------------|
A|---------------------------------|--------------------------------|
E|---------------------------------|---------------------0---2---4--|
   ^       ^       ^       ^         ^       ^       ^       ^


 A                                 G       D                  A
E|---------0-0-----0-----0-----0---|-3-------2----------------------|
B|---------0-0-----0-----0-----0---|-0-------3----------------------|
G|---------6/7-----6-----4-----2---|-0-------2----------------------|
D|---------------------------------|-0-------0----------------------|
A|-0-------------------------------|--------------------------------|
E|---------------------------------|--------------------------------|
   ^       ^       ^       ^         ^       ^       ^       ^
   B               B7/A              E/G#            A
E|---------------------------------|--------------------------------|
B|------3---------------3----------|-----------3-----2--------------|
G|-4---------4-----2---------2-----|------4----------2--------------|
D|---------------------------------|-6---------------2--------------|
A|---------------------------------|--------------------------------|
E|---------------------------------|--------------------------------|
   ^       ^       ^       ^         ^       ^       ^       ^
   A                                 D       E
E|---------0-0-----0-----0-----0---|-0-0-----0----------------------|
B|---------0-0-----0-----0-----0---|-0-0-----3----------------------|
G|---------6/7-----6-----4-----2---|-2/4-----4----------------------|
D|---------------------------------|--------------------------------|
A|---------------------------------|--------------------------------|
E|---------------------------------|--------------------------------|
   ^       ^       ^       ^         ^       ^       ^       ^


Chorus:(With Chorus Figure)

A             G                             A
Every little thing she does    she does for me, yeah
                  G                             A
And you know the things she does   she does for me, woo


Coda:


   A                                 D       E
                                                       Every little
E|---------0-0-----0-----0-----0---|-0-0-----0----------------------|
B|---------0-0-----0-----0-----0---|-0-0-----3----------------------|
G|---------6/7-----6-----4-----2---|-2/4-----4----------------------|
D|---------------------------------|--------------------------------|
A|---------------------------------|--------------------------------|
E|---------------------------------|--------------------------------|
   ^       ^       ^       ^         ^       ^       ^       ^
   A                                 D       E
  thing                                                Every little
E|---------0-0-----0-----0-----0---|-0-0-----0----------------------|
B|---------0-0-----0-----0-----0---|-0-0-----3----------------------|
G|---------6/7-----6-----4-----2---|-2/4-----4----------------------|
D|---------------------------------|--------------------------------|
A|---------------------------------|--------------------------------|
E|---------------------------------|--------------------------------|

(Repeat and fade out)


I DON'T WANT TO SPOIL THE PARTY- The Beatles

          C
I don't want to spoil the party so I'll go
                                   G
I would hate my disappointment to show
          Am            E       Dm7          G7
There's nothing for me here so I will disappear
         C                 Bb                  C
If she turns up while I'm gone please let me know

I've had a drink or two and I don't care
there's no fun in what I do if she's not there
I wonder what went wrong I've waited far too long
I think I'll take a walk and look for her

CHORUS:
          C
Though tonight she's made me sad
Am7  D7  F    G
I still love her
      C
If I find her I'll be glad
Am7 D7    F   G
I still love her

I don't want to spoil the party so I'll go
I would hate my disappointment to show
There's nothing for me here so I will disappear
If she turns up while I'm gone please let me know ...SOLO, CHORUS

I've had a drink or two and I don't care
there's no fun in what I do if she's not there
I wonder what went wrong I've waited far too long
I think I'll take a walk and look for her


(from Beatles for Sale, 1964)
(sent by Harlan at harlant@hawaii.edu)


Date: Sat, 16 Dec 1995 21:55:35 -0600
From: Chris Sears 





I DON'T WANT TO SPOIL THE PARTY
			     The Beatles
			Beatles for Sale, 1964

intro/outro:

   G    G7    G6  D7sus4  Dm7  Dm7sus2  D   Dsus2   D7   G

  -3-   -1-   -0-   -3-   -1-   -0-    -2-   -0-   -2-  -3-
  -3-   -3-   -3-   -1-   -1-   -1-    -3-   -3-   -1-  -3-
  -0-   -0-   -0-   -2-   -2-   -2-    -2-   -2-   -2-  -0-
  -0-   -0-   -0-   -0-   -0-   -0-    -0-   -0-   -0-  -0-
  -2-   -2-   -2-   ---   ---   ---    ---   ---   ---  -2-
  -3-   -3-   -3-   ---   ---   ---    ---   ---   ---  -3-

G
I don't want to spoil the party so I'll go
        G                         D
I would hate my disappointment to show
         Em            B       Am          D7
There's nothing for me here so I will disappear
       G                  F                  G
If she turns up while I'm gone please let me know


G
I've had a drink or two and I don't care
	   G				 D
There's no fun in what I do if she's not there
  Em		   B          Am             D7
I wonder what went wrong I've waited far too long
  G                 F                 G
I think I'll take a walk and look for her


         G
Though tonight she's made me sad
Em7  A7    C    D
I    still love her
     G
If I find her I'll be glad
Em7  A7    C    D
I    still love her

G
I don't want to spoil the party so I'll go
        G                         D
I would hate my disappointment to show
        Em             B       Am     D7
There's nothing for me here so I will disappear
       G                  F                  G
If she turns up while I'm gone please let me know

SOLO
G D Em B Am D7


         G
Though tonight she's made me sad
Em7  A7    C    D
I    still love her
     G
If I find her I'll be glad
Em7  A7    C    D
I    still love her


G
I've had a drink or two and I don't care
	   D
There's no fun in what I do if she's not there
  Em               B          Am             D7
I wonder what went wrong I've waited far too long
G                   F                 G
I think I'll take a walk and look for her


What you're doing


Intro:

(The following riff will be called Riff 1.  It should be played
throughout the song whenever the progression "D-G" is present.)

   D                                G
E|---------------------------------|--------------------------------|
B|---------------------------------|--------------------------------|
G|-----------------4---2-----------|--------------------------------|
D|-0-----------4-----------4---2---|---------2---0---2---4------0---|
A|---------------------------------|--------------------------------|
E|---------------------------------|--------------------------------|
   ^       ^       ^       ^         ^       ^       ^       ^

(Repeat Riff 1)


Verse 1:

D                   G       D           G
Look   what you're doing   I'm feeling blue and lonely would it
Bm               G                              D     G
be too much too ask of you What You're Doing to me

Verse 2:
D             G        D              G
You   got me running  and there's no fun in it why should it
Bm               G                              D     G
be too much too ask of you What You're Doing to me


Bridge:

G                  Bm            G                     Bm
I've been waiting here for you  wondering what you're gonna do
E                                       A
should you need a love that's true it's me


Verse 3:

D                 G      D           G
Please stop your lying  you got me crying girl why should it
Bm               G                              D     G
be too much too ask of you What You're Doing to me


Solo:

   D                                 G7
E|-5-----------------------5-------|-9-------7----------------------|
B|-7-----------------------7-------|-8-------6----------------------|
G|---------------------------------|--------------------------------|
D|---------------------------------|--------------------------------|
A|---------------------------------|--------------------------------|
E|---------------------------------|--------------------------------|
   ^       ^       ^       ^         ^       ^       ^       ^
   D                                 G7
E|-5---------------------------5---|-9---9---7---7------------------|
B|-7---------------------------7---|-8---8---6---6------------------|
G|---------------------------------|--------------------------------|
D|---------------------------------|--------------------------------|
A|---------------------------------|--------------------------------|
E|---------------------------------|--------------------------------|
   ^       ^       ^       ^         ^       ^       ^       ^
   G7                                D
E|-2-------------------------------|--------------------------------|
B|-----3-------------------3-------|--------------------------------|
G|-------------4-------------------|-----4-------------------4------|
D|---------------------------------|-------------5------------------|
A|---------------------------------|-5------------------------------|
E|---------------------------------|--------------------------------|
   ^       ^       ^       ^         ^       ^       ^       ^
   D                                 G7
E|---------------------------------|--------------------------------|
B|---------------------------------|--------------------------------|
G|-4-------------------------------|-2-------------------2----------|
D|-----5---------------------------|-4-----------------------4------|
A|-------------5---------------5---|--------------------------------|
E|---------------------------------|--------------------------------|
   ^       ^       ^       ^         ^       ^       ^       ^


Bridge:

G                  Bm            G                     Bm
I've been waiting here for you  wondering what you're gonna do
E                                       A
should you need a love that's true it's me


Verse 4:

D                 G      D           G
Please stop your lying  you got me crying girl why should it
Bm               G                              D
be too much too ask of you What You're Doing to me


Coda:

             G        D                G       D
What you're doing to me  What you're doing to me
G            D                         A

D            G7       D                G7

Everybody's Trying to be My Baby
MUSIC BY: The Beatles (From the Beatles For Sale album)
TABBED BY: The Beatles Central Team (jpgr_beatles@yahoo.com)


Verse 1:

           E
Well they took some honey

From a tree

Dressed it up and they called it me


Chorus:

A
Everybody's trying to be my baby
E
Everybody's trying to be my baby
B7                    A              E
Everybody's trying to be my baby now




Verse 2:

       E
Well, half past nine

Half past four

Fifty women knocking on my door


Chorus:

A
Everybody's trying to be my baby
E
Everybody's trying to be my baby
B7                    A              E
Everybody's trying to be my baby now


Solo 1:

   E
E|---------7---------------7-------|-7-----------7--------------7---|
B|---------0---------------0-------|-----0---------------7----------|
G|---------------------------------|---------7----------------------|
D|---------------------------------|--------------------------------|
A|---------------------------------|--------------------------------|
E|---------------------------------|--------------------------------|
   ^       ^       ^       ^         ^       ^       ^       ^

E|---------7-----------------------|-7-----------7-------7----------|
B|---------0-----------------------|---------------------0----------|
G|-------------------------7-------|-----7--------------------------|
D|---------------------------------|--------------------------------|
A|---------------------------------|--------------------------------|
E|---------------------------------|--------------------------------|
   ^       ^       ^       ^         ^       ^       ^       ^
   A
E|---------12----------------------|-12---------12------------------|
B|----------0----------------------|-------------0------------------|
G|------------------------12-------|--------------------12------7---|
D|---------------------------------|--------------------------------|
A|---------------------------------|--------------------------------|
E|---------------------------------|--------------------------------|
   ^       ^       ^       ^         ^       ^       ^       ^
   E
E|---------7-----------------------|-7------------------------------|
B|---------0-----------------------|-0------------------------------|
G|-------------------------7-------|-------------7------------------|
D|---------------------------------|--------------------------------|
A|---------------------------------|--------------------------------|
E|---------------------------------|---------------------4---5---6--|
   ^       ^       ^       ^         ^       ^       ^       ^


B7                                A
E|-----7---7---7---7---7---7-------|-5---5---5---5---5---5---5---5--|
B|-----7---7---7---7---7---7-------|-5---5---5---5---5---5---5---5--|
G|-----8---8---8---8---8---8-------|-6---6---6---6---6---6---6---6--|
D|-----9---9---9---9---9---9-------|-7---7---7---7---7---7---7---7--|
A|---------------------------------|-7---7---7---7---7---7---7---7--|
E|-7-------------------------------|-5---5---5---5---5---5---5---5--|
   ^       ^       ^       ^         ^       ^       ^       ^
   E
E|---------0-----------------------|-----0--------------0-------0---|
B|---------0-----------3-----------|------------3-------1-------1---|
G|-----------------------------0---|-1------------------------------|
D|---------------------------------|--------------------------------|
A|---------------------------------|--------------------------------|
E|---------------------------------|--------------------------------|
   ^       ^       ^       ^         ^       ^       ^       ^

Verse 3:

      E
Went out last night

Didn't stay late

'Fore I got home I had nineteen dates


Chorus:

A
Everybody's trying to be my baby
E
Everybody's trying to be my baby
B7                    A              E
Everybody's trying to be my baby now


Solo 2:

   E
E|---------3-----------3-----------|-3-----------3-------3----------|
B|---------3-----------3-----------|-3-----------3-------3----------|
G|---------------------------------|--------------------------------|
D|---------------------------------|--------------------------------|
A|---------------------------------|--------------------------------|
E|---------------------------------|--------------------------------|
   ^       ^       ^       ^         ^       ^       ^       ^

E|---------3-----------3-----------|-3-----------3-------3----------|
B|---------3-----------3-----------|-3-----------3-------3----------|
G|---------------------------------|--------------------------------|
D|---------------------------------|--------------------------------|
A|---------------------------------|--------------------------------|
E|---------------------------------|--------------------------------|
   ^       ^       ^       ^         ^       ^       ^       ^

   A
E|---------3---------------3-------|-3-----------3-------3----------|
B|---------2---------------2-------|-2-----------2-------2----------|
G|---------------------------------|--------------------------------|
D|---------------------------------|--------------------------------|
A|--0------------------0-----------|--------------------------------|
E|---------------------------------|--------------------------------|
   ^       ^       ^       ^         ^       ^       ^       ^
   E
E|---------3-----------3-----------|-3-----------3------------------|
B|---------3-----------3-----------|-3-----------3------------------|
G|---------------------------------|--------------------------------|
D|---------------------------------|--------------------------------|
A|---------------------------------|--------------------------------|
E|---------------------------------|--------------------------------|
   ^       ^       ^       ^         ^       ^       ^       ^
   B7                                A
E|---------9-----------9-----------|-7---5-------3------------------|
B|---------7-----------7-----------|-5---5---------------5----------|
G|---------------------------------|--------------------------------|
D|---------------------------------|--------------------------------|
A|---------------------------------|--------------------------------|
E|---------------------------------|--------------------------------|
   ^       ^       ^       ^         ^       ^       ^       ^
   E
E|---------0-----------------------|-----0----------------------------|
B|---------0-----------0-----------|-------------3--------------------|
G|---------------------0-------0---|-1--------------------------------|
D|---------------------------------|----------------------------------|
A|---------------------------------|----------------------------------|
E|---------------------------------|----------------------------------|
   ^       ^       ^       ^         ^       ^       ^       ^

E|---------15------15---------15---|--------15------15--------------|
B|----------------------------12---|--------12------12------15------|
G|---------13------13--------------|------------------------13------|
D|---------------------------------|--------------------------------|
A|---------------------------------|--------------------------------|
E|---------------------------------|--------------------------------|
   ^       ^       ^       ^         ^       ^       ^       ^

E|---------15----------15----------|-15-----15------15--------------|
B|---------12----------------------|-12-----12------12------15------|
G|---------------------13----------|------------------------13------|
D|---------------------------------|--------------------------------|
A|---------------------------------|--------------------------------|
E|---------------------------------|--------------------------------|
   ^       ^       ^       ^         ^       ^       ^       ^
   A
E|---------12----------12--12------|-12----------12------12---------|
B|---------12----------12--12------|-12----------12------12---------|
G|---------12----------12--12------|-12----------12------12---------|
D|---------------------------------|--------------------------------|
A|---------------------------------|--------------------------------|
E|---------------------------------|--------------------------------|
   ^       ^       ^       ^         ^       ^       ^       ^

   E
E|---------0-----------------------|-----0--------------------------|
B|---------------------3-----------|-------------3------------------|
G|-----------------------------0---|-1------------------------------|
D|---------------------------------|--------------------------------|
A|---------------------------------|-------------------------0---1--|
E|-0-------------------------------|---------------------4----------|
   ^       ^       ^       ^         ^       ^       ^       ^
   B7                                A
E|-----2---------------2-----------|-----3------2---------------0---|
B|-----0-------0-------0-------0---|-----0------0---------------0---|
G|---------------------------------|---------------------2----------|
D|---------------------------------|--------------------------------|
A|-2-------------------------------|--------------------------------|
E|---------------------------------|--------------------------------|
   ^       ^       ^       ^         ^       ^       ^       ^
   E
E|---------0-----------------------|-----0---------------0---0---0--|
B|---------0-----------3-----------|-------------3-------0---0---0--|
G|-----------------------------0---|-1------------------------------|
D|---------------------------------|--------------------------------|
A|---------------------------------|--------------------------------|
E|-0-------------------------------|--------------------------------|
   ^       ^       ^       ^         ^       ^       ^       ^
Verse 4:

      E
Went out last night

Didn't stay late

'Fore I got home I had nineteen dates


Chorus:

A
Everybody's trying to be my baby
E
Everybody's trying to be my baby
B7                    A              E
Everybody's trying to be my baby now


Verse 5:

           E
Well they took some honey

From a tree

Dressed it up and they called it me

Chorus:

A
Everybody's trying to be my baby
E
Everybody's trying to be my baby
B7                    A              E
Everybody's trying to be my baby now


Coda:

   E
E|-------------0---0-------0-------|-0---0---0---0-----------0------|
B|-----3-----------2-------2-------|-1-------0---0-----------0------|
G|-----4-----------3-------3-------|-2-------0---1-----------1------|
D|---------------------------------|--------------------------------|
A|---------------------------------|--------------------------------|
E|---------------------------------|--------------------------------|
   ^       ^       ^       ^         ^       ^       ^       ^
                                                            B7
E|---------------------------------|--------------------------------|
B|-----------------------------3---|-------------------------3------|
G|-----0-------1---------2/4-------|-2---0-------------------1------|
D|---------------------------------|---------0---2-----------2------|
A|---------------------------------|-------------------------2------|
E|---------------------------------|--------------------------------|
   ^       ^       ^       ^         ^       ^       ^       ^
comments
print report bad tab
1 comment total.
-2 reply
Who66 wrote on October 11 2008, 01:40 pm

stolen and mostly WRONG.

I want to post or [tab]
guest
You may want to rate the tab now too:
select rating
Please do not post tabs as comments. Select "correction" instead!