Oops, an error
Loading. Please wait.

Being For The Benefit Of Mr Kite bass

version 2
version 2

Whole song

Interactive

1,266 views 1 this week
no commentswrite comment
1 2 3 4 5
2 more votes to show rating
add to favorites
×
Save as Personal and add changes to this tab that will be seen only by you. Learn more ›
×
You can save this tab as Personal to edit and correct it or add notes. All changes will be seen only by you. Learn more »
launch autoscroll
font size
0
reset
guitar tuner
backing track
0:00
0:00
edit
Autoscroll
slow
fast
+/-
esc
set tempo
stop
Author
Difficulty
The Beatles.
Being for the Benefit of Mr. Kite! (Lennon & McCartney).
From Sgt. Pepper's Lonely Hearts Club Band album.
Released on 1st June, 1967.



Hello my name is Gustavo ,and this is my first tab.
Not having found a bass tab of 100% correct with this song, I want to share it with you.
 This is what I have heard, with so much patience and detail by detail, listening to the 
bass multitrack
. I am sure it is 100% correct with the original song.
I apologize for my english but I haven't found a decent program that translate fine.

Aguante los beatles,los doors, jimmy hendrix, ac dc y pink floyd wacho.


• / - slide up

• \ - slide down

• h - hammer on


G|---------------------------------|--------------------------------|
D|---------------------------------|--------------------------------|
A|---------------------------------|--------------------------------|
E|6------6-6-------6-----6-6\5-----|5-----5-5-------5\--------------|
  ^        ^       ^       ^        ^       ^       ^

G|--------------------------------|--------------------------------|
D|--------------------------------|--------------------------------|
A|5-------------------------------|3-------------------------------|
E|----------------3---------------|----------------3---------------|
  ^       ^       ^       ^        ^       ^       ^       ^

G|--------------------------------|--------------------------------|
D|------------------------3-------|5-------5-------5---------------|
A|------------3---5---------------|--------------------5-------5---|
E|6-------------------------------|------------------------7-------|
  ^       ^       ^       ^        ^       ^       ^       ^

G|--------------------------------|--------------------------------|
D|------------------------5-------|------------------------3---5---|
A|------------3---5---------------|3-------5-------6---------------|
E|3---5---7-----------------------|--------------------------------|
  ^       ^       ^       ^        ^       ^       ^       ^

G|--------------------------------|--------------------------------|
D|----------------------------5---|7-------7-------7---------------|
A|--------3-------5-------8-------|--------------------7-------7---|
E|6-------------------------------|------------------------9-------|
  ^       ^       ^       ^        ^       ^       ^       ^

G|--------------------------------|--------5---7--7/9------7---6---|
D|------------------------5---7---|8-------------------------------|
A|5-------7-------8---------------|--------------------------------|
E|--------------------------------|--------------------------------|
  ^       ^       ^       ^        ^       ^       ^       ^

G|7-------5-----------------------|--------5---7--7/9------7---6---|
D|----------------8-------7-------|8-------------------------------|
A|--------------------------------|--------------------------------|
E|--------------------------------|--------------------------------|
  ^       ^       ^       ^        ^       ^       ^       ^

G|7-------5-----------------------|--------7-----------------------|
D|----------------8-------7-------|8-----------8---7-------7\------|
A|--------------------------------|--------------------------------|
E|--------------------------------|--------------------------------|
  ^       ^       ^       ^        ^       ^       ^       ^

G|--------------------------------|--------------------------------|
D|--------------------------------|--------------------------------|
A|5-------------------------------|3-------------------------------|
E|----------------3---------------|----------------3---------------|
  ^       ^       ^       ^        ^       ^       ^       ^

G|--------------------------------|--------------------------------|
D|------------------------3-------|5---------------5---------------|
A|------------3---5---------------|------------5-------5-------5---|
E|6-------------------------------|------------------------7-------|
  ^       ^       ^       ^        ^       ^       ^       ^

G|--------------------------------|--------------------------------|
D|------------------------5-------|------------------------3---5---|
A|------------3---5---------------|3-------5-------6---------------|
E|3---5---7-----------------------|--------------------------------|
  ^       ^       ^       ^        ^       ^       ^       ^

G|--------------------------------|--------------------------------|
D|-----------------------------5--|7-------7-------7---------------|
A|--------3-------5-------8-------|--------------------7-------7---|
E|6-------------------------------|------------------------9-------|
  ^       ^       ^       ^        ^       ^       ^       ^

G|--------------------------------|--------5---7--7/9------7---6---|
D|------------------------5---7---|8-------------------------------|
A|5-------7-------8---------------|--------------------------------|
E|--------------------------------|--------------------------------|
  ^       ^       ^       ^        ^       ^       ^       ^

G|7-------5-----------------------|--------5---7--7/9------7---6---|
D|----------------8-------7-------|8-------------------------------|
A|--------------------------------|--------------------------------|
E|--------------------------------|--------------------------------|
  ^       ^       ^       ^        ^       ^       ^       ^

The meter changes to 6/8 here
G|------------------------|------------------------|
D|--------------------5---|--------------------5---|
A|5-------7---8-----------|3-------5---7-----------|
E|------------------------|------------------------|
  ^   ^   ^   ^   ^   ^    ^   ^   ^   ^   ^   ^

G|------------------------|------------------------|
D|7-----------7-----------|------------------------|
A|--------7-----7---------|------------4---5---7---|
E|----------------5---5---|3---5---7---------------|
  ^   ^   ^   ^   ^   ^    ^   ^   ^   ^   ^   ^

G|------------------------|------------------------|
D|----------------5---7---|----------------5---7---|
A|5\------7---8-----------|3-------5---7-----------|
E|------------------------|------------------------|
  ^   ^   ^   ^   ^   ^    ^   ^   ^   ^   ^   ^

G|------------------------|------------------------|
D|9-----------9-------9---|----------------7---9---|
A|--------9---------9---9-|7-------9---10----------|
E|------------------------|------------------------|
  ^   ^   ^   ^   ^   ^    ^   ^   ^   ^   ^   ^

G|------------------------|------------------------|
D|10--10--10--9---9\------|----------------7---9---|
A|--------------------6---|7\------9---10----------|
E|------------------------|------------------------|
  ^   ^   ^   ^   ^   ^    ^   ^   ^   ^   ^   ^

G|------------------------|------------------------|
D|10----1210--9/----------|------------------------|
A|--------------------6---|7-----------------------|
E|-------------------------|-----------------------|
  ^   ^   ^   ^   ^   ^    ^   ^   ^   ^   ^   ^

The meter changes back to 4/4 with swung 8th notes.


G|--------------------------------|
D|--------------------------------|
A|3-------------------------------|
E|----------------3---------------|
  ^       ^       ^       ^
G|--------------------------------|--------------------------------|
D|------------------------3-------|5-------5-------5---------------|
A|------------3---5---------------|--------------------5-------5---|
E|6-------------------------------|------------------------7-------|
  ^       ^       ^       ^        ^       ^       ^       ^

G|--------------------------------|--------------------------------|
D|------------------------5/------|------------------------3---5---|
A|------------3---5---------------|3-------5-------6---------------|
E|3---5---7-----------------------|--------------------------------|
  ^       ^       ^       ^        ^       ^       ^       ^

G|--------------------------------|--------------------------------|
D|----------------------------5---|7-------7-------7---------------|
A|--------3-------5-------8-------|--------------------7-------7---|
E|6-------------------------------|------------------------9-------|
  ^       ^       ^       ^        ^       ^       ^       ^

G|--------------------------------|--------5---7--7/9------7---6---|
D|------------------------5---7---|8-------------------------------|
A|5-------7-------8---------------|--------------------------------|
E|--------------------------------|--------------------------------|
  ^       ^       ^       ^        ^       ^       ^       ^


G|7-------5-----------------------|--------5---7--7/9------7---6---|
D|----------------8-------7-------|8-------------------------------|
A|--------------------------------|--------------------------------|
E|--------------------------------|--------------------------------|
  ^       ^       ^       ^        ^       ^       ^       ^


G|7-------5-----------------------|----5---7-----------------------|
D|----------------8-------7-------|8--------------8/7-------7------|
A|--------------------------------|--------------------------------|
E|--------------------------------|--------------------------------|
  ^       ^       ^       ^        ^       ^       ^       ^

*The meter changes to 6/8 here
G|------------------------|------------------------|
D|--------------------5/7-|-------------------5----|
A|5-------7---8-----------|3-------5/7-------------|
E|------------------------|------------------------|
  ^   ^   ^   ^   ^   ^    ^   ^   ^   ^   ^   ^

G|------------------------|------------------------|
D|7---7---7---------------|----------------------7/|
A|------------7-------7---|------------4---5---7---|
E|----------------9-------|3---5---7---------------|
  ^   ^   ^   ^   ^   ^    ^   ^   ^   ^   ^   ^

G|------------------------|------------------------|
D|----------------5/7-----|----------------5---7---|
A|5-------7---8-----------|3-------5---7-----------|
E|------------------------|------------------------|
  ^   ^   ^   ^   ^   ^    ^   ^   ^   ^   ^   ^

G|------------------------|------------------------|
D|9---9---9---------------|----------------7---9---|
A|------------9-------9---|7-------9---10----------|
E|----------------11------|------------------------|
  ^   ^   ^   ^    ^   ^    ^   ^   ^   ^   ^   ^

G|------------------------|------------------------|
D|10----1210--9--9/-------|----------------7---9---|
A|--------------------6h7-|--------9---10----------|
E|------------------------|------------------------|
  ^   ^   ^   ^   ^   ^    ^   ^   ^   ^   ^   ^

G|------------------------|------------------------|
D|10- 10--9--9/-----------|----------------7---9---|
A|--------------------6---|7-------9---10----------|
E|------------------------|------------------------|
  ^   ^   ^   ^   ^   ^    ^   ^   ^   ^   ^   ^


G|------------------------|------------------------|
D|10----9h10--/9----------|------------------------|
A|--------------------6---|7-------5-------3-------|
E|------------------------|------------------------|
  ^   ^   ^   ^   ^   ^    ^   ^   ^   ^   ^   ^

G|------------------------|
D|------------------------|
A|2-----------------------|
E|--------0---------------|
  ^   ^   ^   ^   ^   ^

            
            
Suggest correction
Creating personal tab
Creating personal tab
You can edit any tab online and save it as your Personal.

You can edit, replace or remove any tab part or add personal notes – all changes will be seen only by you.

Personal tabs can be accessed anytime from any device, even offline.
Learn more »
Give kudos to tab author, rate the tab!
1 2 3 4 5
comments
print report bad tab
guest
You may want to rate the tab now too:
select rating
Wanna post a correction for this tab? Suggest correction