Oops, an error
Loading. Please wait.
We have an official Birthday tab made by UG professional guitarists. Check out the tab »
×
139 views 3 this week
no commentswrite comment
1 2 3 4 5
3 more votes to show rating
add to favorites
×
Save as Personal and add changes to this tab that will be seen only by you. Learn more ›
×
You can save this tab as Personal to edit and correct it or add notes. All changes will be seen only by you. Learn more »
launch autoscroll
font size
0
reset
guitar tuner
backing track
0:00
0:00
edit
Autoscroll
slow
fast
+/-
esc
set tempo
stop
Author
Birthday
Track by The Beatles taken from The White Album released in 1968.
Bass performance Sir James Paul McCartney. Tab by bass50611.
This is how I would play it on stage.

Intro: (DRUM ROLL START)

G|------------------------------------------------------------------|
D|----------5-4----------------4-4-----------5-4----------------4-4-|
A|-----4--7-----7-----4-4--7-7----------4--7-----7-----4-4--7-7-----|
E|-5-5------------5-5---------------5-5------------5-5--------------|

G|----------5-4----------------4-4----------------------------------|
D|-----4--7-----7-----4-4--7-7---------------5-4----------------4-4-|
A|-5-5------------5-5-------------------4--7-----7-----4-4--7-7-----|
E|----------------------------------5-5------------5-5--------------|

G|----------7-6----------------6-6----------------------------------|
D|-----6--9-----9-----6-6--9-9---------------5-4----------------4-4-|
A|-7-7------------7-7-------------------4--7-----7-----4-4--7-7-----|
E|----------------------------------5-5------------5-5--------------|

Verse 1:
G|------------------------------------------------------------------|
D|----------5-4----------------4-4-----------5-4----------------4-4-|
A|-----4--7-----7-----4-4--7-7----------4--7-----7-----4-4--7-7-----|
E|-5-5------------5-5---------------5-5------------5-5--------------|

G|----------5-4----------------4-4----------------------------------|
D|-----4--7-----7-----4-4--7-7---------------5-4----------------4-4-|
A|-5-5------------5-5-------------------4--7-----7-----4-4--7-7-----|
E|----------------------------------5-5------------5-5--------------|

G|----------7-6----------------6-6-------------------------------------|
D|-----6--9-----9-----6-6--9-9---------------5-4----------------4-4----|
A|-7-7------------7-7-------------------4--7-----7-----4-4--7-7--------|
E|----------------------------------5-5------------5-5---------------5-|

Drum Break x16 Bars

Bridge 1:                                  (Play This Bit x2)
G|-----------------------------------------------------|
D|-----------------------------------------------------|
A|-7-7-7-7-7-7-7-7---7-7-7-7-7-7-7-7---7-7-7-7-7-7-7-7-|
E|-----------------------------------------------------|

G|-----------------------------------|
D|-----------------------------------|
A|-7-7-7-7-7-7-7-7---7-7-7-7-7-7-7-5-|
E|-----------------------------------|

                          (Play This Bit x3)
G|---------------------------------------|
D|-----2-2--3-3--4-4--5-5--3-3--2-2--0-0-|
A|-3-3-----------------------------------|
E|---------------------------------------|


G|------------------------------------------------------------------------|
D|-----2-2--3-3--4-4--5-5--6-6--7-7--8-8--9-9-9-9-9-9-9-9-----------------|
A|-3-3----------------------------------------------------7-7-7-7-7-7-7-7-|
E|------------------------------------------------------------------------|

Interlude:
G|------------------------------------------------------------------|
D|----------5-4----------------4-4-----------5-4----------------4-4-|
A|-----4--7-----7-----4-4--7-7----------4--7-----7-----4-4--7-7-----|
E|-5-5------------5-5---------------5-5------------5-5--------------|

G|----------5-4----------------4-4----------------------------------|
D|-----4--7-----7-----4-4--7-7---------------5-4----------------4-4-|
A|-5-5------------5-5-------------------4--7-----7-----4-4--7-7-----|
E|----------------------------------5-5------------5-5--------------|

G|----------7-6----------------6-6----------------------------------|
D|-----6--9-----9-----6-6--9-9---------------5-4----------------4-4-|
A|-7-7------------7-7-------------------4--7-----7-----4-4--7-7-----|
E|----------------------------------5-5------------5-5--------------|

Lead & Bass Solo:
G|-----------------------------------------5--9--7--5-------|
D|------5--7--5-----------------------5--7-------------7--5-|
A|----7---------7--5--3------------7------------------------|
E|-5--------------------5--3----5---------------------------|

Bridge 2:                 (Play This Bit x3)
G|---------------------------------------|
D|-----2-2--3-3--4-4--5-5--3-3--2-2--0-0-|
A|-3-3-----------------------------------|
E|---------------------------------------|

G|------------------------------------------------------------------------|
D|-----2-2--3-3--4-4--5-5--6-6--7-7--8-8--9-9-9-9-9-9-9-9-----------------|
A|-3-3----------------------------------------------------7-7-7-7-7-7-7-7-|
E|------------------------------------------------------------------------|

Verse 2:
G|------------------------------------------------------------------|
D|----------5-4----------------4-4-----------5-4----------------4-4-|
A|-----4--7-----7-----4-4--7-7----------4--7-----7-----4-4--7-7-----|
E|-5-5------------5-5---------------5-5------------5-5--------------|

G|----------5-4----------------4-4----------------------------------|
D|-----4--7-----7-----4-4--7-7---------------5-4----------------4-4-|
A|-5-5------------5-5-------------------4--7-----7-----4-4--7-7-----|
E|----------------------------------5-5------------5-5--------------|

G|----------7-6----------------6-6-----------------|
D|-----6--9-----9-----6-6--9-9---------------5-4---|
A|-7-7------------7-7-------------------4--7-----7-|
E|----------------------------------5-5------------|

Outro:                             (End)
G|------------------------------------|
D|----------5-4-------------5-4-------|
A|-----4--7-----7------4--7-----7-----|
E|-5-5-------------5-5--------------5-|


            
            
Suggest correction
Creating personal tab
Creating personal tab
You can edit any tab online and save it as your Personal.

You can edit, replace or remove any tab part or add personal notes – all changes will be seen only by you.

Personal tabs can be accessed anytime from any device, even offline.
Learn more »
Give kudos to tab author, rate the tab!
1 2 3 4 5
comments
print report bad tab
guest
You may want to rate the tab now too:
select rating
Wanna post a correction for this tab? Suggest correction