Oops, an error
Loading. Please wait.
We have an official Birthday tab made by UG professional guitarists. Check out the tab »
×

Birthday tab

148,766 views 255 this week
12 commentsread comments
1 2 3 4 5
x 55
add to favorites
×
Save as Personal and add changes to this tab that will be seen only by you. Learn more ›
×
You can save this tab as Personal to edit and correct it or add notes. All changes will be seen only by you. Learn more »
launch autoscroll
font size
0
reset
how to read this tab
guitar tuner
backing track
0:00
0:00
edit
Autoscroll
slow
fast
+/-
esc
set tempo
stop
Author
Difficulty
*****************************************************************************
**************************  Birthday  * The Beatles *************************
*****************************************************************************
************************** Tabbed By  *  GuitarYee  *************************
*****************************************************************************

Hi Guys, 
This Is My First Tab,
I Was Trying To Make A Good One,
And Easy To Play..

So Please Rate On What I Got..
Thanx.. ^^

And If You Have Anything To Say,
Or Have Questions,
Mail Me At:

* GuitarYee@hotmail.com *

*****************************************************************************


[Intro]

e||---------------------------------------||
B||---------------------------------------||
G||---------------------------------------||
D||-----------------2---5---4---2---------||
A||-----0---0---4-------------------0-----||
E||---------------------------------------||

e||---------------------------------------||
B||---------------------------------------||
G||---------------------------------------||
D||-----------------2---5---4---2---------||
A||-----0---0---4-------------------0-----||
E||---------------------------------------||

e||---------------------------------------||
B||---------------------------------------||
G||-----------------2---5---4---2---------||
D||-----0---0---4-------------------0-----||
A||---------------------------------------||
E||---------------------------------------||

e||---------------------------------------||
B||---------------------------------------||
G||---------------------------------------||
D||-----------------2---5---4---2---------||
A||-----0---0---4-------------------0-----||
E||---------------------------------------||

e||---------------------------------------||
B||---------------------------------------||
G||---------------------------------------||
D||---------------------------------------||
A||-----------------2---5---4---2---------||
E||-----0---0---4-------------------0-----||

e||---------------------------------------||
B||---------------------------------------||
G||---------------------------------------||
D||-----------------2---5---4---2---------||
A||-----0---0---4-------------------0-----||
E||---------------------------------------||


[Pre-Chorus]

e||-------------------||
B||-------------------||
G||-----9----7--9-----|| 
D||-----9----7--9-----|| x4
A||-----7----5--7-----||
E||-------------------||


[Chorus]

e||---------------------------------------------------------------||
B||---------------------------------------------------------------||
G||---------------------------------------------------------------|| 
D||------------2--2---3--3---4--4---5--5---3--3---2--2---0--0-----|| x3
A||-----3--3------------------------------------------------------||
E||---------------------------------------------------------------||

*Then..
e||-------------------------------------------------------------------||
B||-------------------------------------------------------------------||
G||-------------------------------------------------------------------|| 
D||------------2--2---3--3---4--4---5--5---6--6---7--7---8--8---9~----|| 
A||-----3--3----------------------------------------------------------||
E||-------------------------------------------------------------------||


[Instrumental]

e||---------------------------------------||
B||---------------------------------------||
G||---------------------------------------||
D||-----------------2---5---4---2---------||
A||-----0---0---4-------------------0-----||
E||---------------------------------------||

e||---------------------------------------||
B||---------------------------------------||
G||---------------------------------------||
D||-----------------2---5---4---2---------||
A||-----0---0---4-------------------0-----||
E||---------------------------------------||

e||---------------------------------------||
B||---------------------------------------||
G||-----------------2---5---4---2---------||
D||-----0---0---4-------------------0-----||
A||---------------------------------------||
E||---------------------------------------||

e||---------------------------------------||
B||---------------------------------------||
G||---------------------------------------||
D||-----------------2---5---4---2---------||
A||-----0---0---4-------------------0-----||
E||---------------------------------------||

e||---------------------------------------||
B||---------------------------------------||
G||---------------------------------------||
D||---------------------------------------||
A||-----------------2---5---4---2---------||
E||-----0---0---4-------------------0-----||

e||---------------------------------------||
B||---------------------------------------||
G||---------------------------------------||
D||-----------------2---5---4---2---------||
A||-----0---0---4-------------------0-----||
E||---------------------------------------||


[Solo]

*Solo Guitar 1
e||---------------------------------------------------------------||
B||---------------------------------------------------------------||
G||------------------------------------------5-7b---5-------------|| 
D||---------5-7-5------------------------5-7-------------7-5------|| 
A||-------7-------7-5-3----------------7--------------------------||
E||-----5---------------5-3----------5----------------------------||
                                                                  ||
*Solo Guitar 2                                                    ||
e||------------------------------------------8-10b-8h10p8---------||
B||---------8-8b-------------------------8-10------------10-8-----||
G||-------9-------9-7-5----------------9--------------------------|| 
D||-----7---------------7-5----------7----------------------------|| 
A||---------------------------------------------------------------||
E||---------------------------------------------------------------||


[Chorus]

e||---------------------------------------------------------------||
B||---------------------------------------------------------------||
G||---------------------------------------------------------------|| 
D||------------2--2---3--3---4--4---5--5---3--3---2--2---0--0-----|| x3
A||-----3--3------------------------------------------------------||
E||---------------------------------------------------------------||

*Then..
e||-------------------------------------------------------------------||
B||-------------------------------------------------------------------||
G||-------------------------------------------------------------------|| 
D||------------2--2---3--3---4--4---5--5---6--6---7--7---8--8---9~----|| 
A||-----3--3----------------------------------------------------------||
E||-------------------------------------------------------------------||


[Intro] (And Instead Of The Last One You Play)

e||----------------------------------------------------------------------------||
B||----------------------------------------------------------------------------||
G||----------------------------------------------------------------------------||
D||-----------------2---5-(4)-------------2---5-(4)---------2---5---4---2~-----||
A||-----0---0---4-------------0---0---4-------------0---0---------------0~-----||
E||----------------------------------------------------------------------------||

*End..

*****************************************************************************

[Lyrics]


[Verse]

They say it's your birthday
It's my birthday too, Yeah
They say it's your birthday
We're gonna have a good time
I'm glad it's your birthday
Happy birthday to you


[Pre-Chorus]

Ah
Ah
Ah
Come on
Come on


[Chorus]

Yes we're going to a party party
Yes we're going to a party party
Yes we're going to a party party


[Verse]

I would like you to dance (Birthday)
Take a cha-cha-cha-chance (Birthday)
I would like you to dance (Birthday)
Dance


[Pre-Chorus]

Yeah
Oh
Come on


[Chorus]

I would like you to dance (Birthday)
Take a cha-cha-cha-chance (Birthday)
I would like you to dance (Birthday)
Oh dance
Dance

They say it's your birthday
Well it's my birthday too, Yeah
They say it's your birthday
We're gonna have a good time
I'm glad it's your birthday
Happy birthday to you


*****************************************************************************

So That's It.. 
Enjoy..
Oh Yeah,
Please Rate,
And Leave A Comment
Cya.. ^^

*****************************************************************************


************************************

| (n)  Ghost note
| h    Hammer-on
| p    Pull-off
| b    Bend
| ~    Vibrato

************************************

            
            
Suggest correction
Creating personal tab
Creating personal tab
You can edit any tab online and save it as your Personal.

You can edit, replace or remove any tab part or add personal notes – all changes will be seen only by you.

Personal tabs can be accessed anytime from any device, even offline.
Learn more »
comments
print report bad tab
12 comments total. Showing first comments.
0 reply
GuitarYee 61 Jun 24, 2008 10:05 PM

How You Delete/Update A Tab??
I'm Just New Here,
So A Little Help Please ^^

+2 reply
GuitarYee 61 Jun 26, 2008 06:17 AM

'Cause I Need To Change Something..
The Chorus Goes Like This:
e||--------------------------------------------------------------||
B||--------------------------------------------------------------||
G||--------------------------------------------------------------||
D||------------2--2---3--3---4--4---5--5---3--3---2--2---0--0----||
A||-----3--3-----------------------------------------------------||
E||--------------------------------------------------------------||

* Not This! *
e||--------------------------------------------------------------||
B||--------------------------------------------------------------||
G||--------------------------------------------------------------||
D||------------2--2---3--3---4--4---5--5-------------------------||
A||-----3--3-------------------------------3--3---2--2---0--0----||
E||--------------------------------------------------------------||

Sorry For The Mistake..
But I Don't Know How To Change It.. xD

+1 reply
Fall.In.Girl 10 Jun 26, 2008 06:20 AM

Without the mistake, I think it's perfect.
It's an easy way to play it good. 5*

guest
You may want to rate the tab now too:
select rating
Wanna post a correction for this tab? Suggest correction