Oops, an error
Loading. Please wait.

Blackbird Tab

2,716,585 views 3,636 this week
140 commentsread comments
1 2 3 4 5
excellent!
x 1,681
add to favorites
launch autoscroll
font size
0
reset
how to read this tab
guitar tuner
Tab Pro tools
  • play this tab
  • loop segment
  • change instrument
  • show fretboard
  • metronome
×
Best way to learn
"Blackbird"
Autoscroll
slow
fast
+/-
esc
set tempo
stop
Contributor
[Intro]
e|-------------------------------------------------------------|
B|---0-------1-------3--------/12----12--12----12----12--12----|
G|-------0-------0-------0---------0-------0-------0-------0---|
D|-------------------------------------------------------------|
A|-----------0-------2--------/10------10------10------10------|
E|---3---------------------------------------------------------|
     

[Verse]
e|-------------------------------------------------------------|
B|---0-------1-------3--------/12----12--12----12----12--12----|
G|-------0-------0-------0---------0-------0-------0-------0---|
D|-------------------------------------------------------------|
A|-----------0-------2--------/10------10------10------10------|
E|---3---------------------------------------------------------|
       
e|----------(3)-------------(5)-----------------------------------------|
B|---5-------8-------7-------10---------8-----8---8-----8-----8---8-----|
G|-------0-------0-------0-------0----------0-------0-------0-------0---|
D|----------------------------------------------------------------------|
A|---3-------4-------5-------6----------7-------7-------6-------6-------|
E|----------------------------------------------------------------------|
       
e|----------(3)---------------------------------------|
B|---7-------8-------5-----5---5------4-----4---4-----|
G|-------0-------0-------0-------0--------0-------0---|
D|----------------------------------------------------|
A|---5-------4-------3-------3--------3-------3-------|
E|----------------------------------------------------|
           
e|-----------------------------------------------------------------------|
B|---3-----3---3-----2-----2---2------1-----1---1------0-----0----0------|
G|-------0-------0-------0-------0--------0-------0--------0---------0---|
D|------------------------------------0-------0--------------------------|
A|---2-------2-------0-------0-------------------------------------------|
E|-----------------------------------------------------3--------3--------|
      
[Fill]                    
e|----------------------------------------------------------------------|
B|--5-------3---------2-----2---2-----1-----1---1------0-----0----0-----|
G|------0-------0---------0-------0-------0-------0--------0--------0---|
D|------------------------------------0-------0-------------------------|
A|--3-------2---------0-------0-----------------------------------------|
E|-----------------------------------------------------3--------3-------|


[Verse]   
e|-------------------------------------------------------------|
B|---0-------1-------3--------/12----12--12----12----12--12----|
G|-------0-------0-------0---------0-------0-------0-------0---|
D|-------------------------------------------------------------|
A|-----------0-------2--------/10------10------10------10------|
E|---3---------------------------------------------------------|
       
e|----------(3)-------------(5)-----------------------------------------|
B|---5-------8-------7-------10---------8-----8---8-----8-----8---8-----|
G|-------0-------0-------0-------0----------0-------0-------0-------0---|
D|----------------------------------------------------------------------|
A|---3-------4-------5-------6----------7-------7-------6-------6-------|
E|----------------------------------------------------------------------|
       
e|----------(3)---------------------------------------|
B|---7-------8-------5-----5---5------4-----4---4-----|
G|-------0-------0-------0-------0--------0-------0---|
D|----------------------------------------------------|
A|---5-------4-------3-------3--------3-------3-------|
E|----------------------------------------------------|
           
e|-----------------------------------------------------------------------|
B|---3-----3---3-----2-----2---2------1-----1---1------0-----0----0------|
G|-------0-------0-------0-------0--------0-------0--------0---------0---|
D|------------------------------------0-------0--------------------------|
A|---2-------2-------0-------0-------------------------------------------|
E|-----------------------------------------------------3--------3--------|


[Chorus] 
e|---------------------------------------------------------------------|
B|---10------8-------6-------5---------3-----3---3-----5-----5---5-----|
G|-------0-------0-------0-------0---------0-------0-------0-------0---|
D|---------------------------------------------------------------------|
A|---8-------7-------5-------3---------1-------1-------3-------3-------|
E|---------------------------------------------------------------------|

e|---------------------------------------------------------------------|
B|---10------8-------6-------5---------3-----3---3-----2-----2---2-----|
G|-------0-------0-------0-------0---------0-------0-------0-------0---|
D|---------------------------------------------------------------------|
A|---8-------7-------5-------3---------1-------1-------0-------0-------|
E|---------------------------------------------------------------------|
   
e|----------------------|
B|---1-----1---1----1---|
G|-------0-------0------|
D|---0-------0----------|
A|----------------------|
E|----------------------|


[Verse]
e|-------------------------------------------------------------|
B|---0-------1-------3--------/12----12--12----12----12--12----|
G|-------0-------0-------0---------0-------0-------0-------0---|
D|-------------------------------------------------------------|
A|-----------0-------2--------/10------10------10------10------|
E|---3---------------------------------------------------------|
 
e|----------(3)-------------(5)----------------------------------------|
B|---5-------8-------7-------10--------8-----8---8-----8-----8---8-----|
G|-------0-------0-------0-------0---------0-------0-------0-------0---|
D|---------------------------------------------------------------------|
A|---3-------4-------5-------6---------7-------7-------6-------6-------|
E|---------------------------------------------------------------------|
  
e|----------(3)---------------------------------------|
B|---7-------8-------5-----5---5------4-----4---4-----|
G|-------0-------0-------0-------0--------0-------0---|
D|----------------------------------------------------|
A|---5-------4-------3-------3--------3-------3-------|
E|----------------------------------------------------|
       
e|----------------------------------------------------------------------|
B|---3-----3---3-----2-----2---2------1-----1---1-------0-----0----0----|
G|-------0-------0-------0-------0--------0-------0---------0--------0--|
D|------------------------------------0-------0-------------------------|
A|---2-------2-------0-------0------------------------------------------|
E|------------------------------------------------------3--------3------|
    

[Chorus]
e|---------------------------------------------------------------------|
B|---10------8-------6-------5---------3-----3---3-----5-----5---5-----|
G|-------0-------0-------0-------0---------0-------0-------0-------0---|
D|---------------------------------------------------------------------|
A|---8-------7-------5-------3---------1-------1-------3-------3-------|
E|---------------------------------------------------------------------|
            
e|---------------------------------------------------------------------|
B|---10------8-------6-------5---------3-----3---3-----2-----2---2-----|
G|-------0-------0-------0-------0---------0-------0-------0-------0---|
D|---------------------------------------------------------------------|
A|---8-------7-------5-------3---------1-------1-------0-------0-------|
E|---------------------------------------------------------------------|

e|----------------------|
B|---1-----1---1----1---|
G|-------0-------0------|
D|---0-------0----------|
A|----------------------|
E|----------------------|


[Verse]
e|-------------------------------------------------------------|
B|---0-------1-------3--------/12----12--12----12----12--12----|
G|-------0-------0-------0---------0-------0-------0-------0---|
D|-------------------------------------------------------------|
A|-----------0-------2--------/10------10------10------10------|
E|---3---------------------------------------------------------|
    
e|----------------------------------------------------------------------|
B|---12----12--12----12----12--12------12-----12----12----12~~~~~-------|
G|-------0-------0-------0-------0---------0-----0-----0---0~~~~~-------|
D|----------------------------------------------------------------------|
A|---10------10------10------10--------10-----10----10----10~~~~~-------|
E|----------------------------------------------------------------------|
  
e|------------------------------------------------------------------------|
B|-12\--0-------1-------3--------5-------3-------2--------1-----1---1-----|
G|----------0-------0-------0--------0-------0-------0--------0-------0---|
D|--------------------------------------------------------0-------0-------|
A|-10\----------0-------2--------3-------2-------0------------------------|
E|------3-----------------------------------------------------------------|
        


[Verse]
e|-------------------------------------------------------------|
B|---0-------1-------3--------/12----12--12----12----12--12----|
G|-------0-------0-------0---------0-------0-------0-------0---|
D|-------------------------------------------------------------|
A|-----------0-------2--------/10------10------10------10------|
E|---3---------------------------------------------------------|
       
e|----------(3)-------------(5)-----------------------------------------|
B|---5-------8-------7-------10---------8-----8---8-----8-----8---8-----|
G|-------0-------0-------0-------0----------0-------0-------0-------0---|
D|----------------------------------------------------------------------|
A|---3-------4-------5-------6----------7-------7-------6-------6-------|
E|----------------------------------------------------------------------|
         
e|----------(3)---------------------------------------|
B|---7-------8-------5-----5---5------4-----4---4-----|
G|-------0-------0-------0-------0--------0-------0---|
D|----------------------------------------------------|
A|---5-------4-------3-------3--------3-------3-------|
E|----------------------------------------------------|
      
e|------------------------------------------------------------------------|
B|---3-----3---3-----2-----2---2--------1-----1---1------0-----0----0-----|
G|-------0-------0-------0-------0----------0-------0--------0--------0---|
D|--------------------------------------0-------0-------------------------|
A|---2-------2-------0-------0--------------------------------------------|
E|-------------------------------------------------------3--------3-------|
        
e|------------------------------------------------------------------------|
B|---5-------3-------2-----2---2--------1-----1---1------0-----0----0-----|
G|-------0-------0-------0-------0----------0-------0--------0--------0---|
D|--------------------------------------0-------0-------------------------|
A|---3-------2-------0-------0--------------------------------------------|
E|-------------------------------------------------------3--------3-------|

e|----------------------------------------------------------------------|
B|---5-------3-------2-----2---2--------1-----1---1-----0---0~~~~~------|
G|-------0-------0-------0-------0----------0-------0---0---0~~~~~------|
D|--------------------------------------0-------0-------0---0~~~~~------|
A|---3-------2-------0-------0------------------------------2~~~~~------|
E|------------------------------------------------------3---------------|


Legend:
/ = slide up
\ = slide down
~ = let ring
() = ghost note
comments
print report bad tab
140 comments total. Showing first comments.
+26 reply
Gibsonlover89 wrote on May 27 2005, 12:00 am

Your Tabs Friggin ROCK, keep 'em comin

+11 reply
aron444 wrote on May 30 2005, 12:00 am

Thankyou, and I am a Gibson lover too.LOL

+9 reply
Constantine wrote on November 24 2005, 04:05 pm

kick ass tab \m/

I want to post or [tab]
guest
You may want to rate the tab now too:
select rating
Please do not post tabs as comments. Select "correction" instead!