Oops, an error
Loading. Please wait.

Carry That Weight Tab

version 1
version 1

Whole song

Interactive

19,466 views 42 this week
no commentswrite comment
1 2 3 4 5
excellent!
x 6
add to favorites
launch autoscroll
font size
0
reset
how to read this tab
guitar tuner
Tab Pro tools
  • play this tab
  • loop segment
  • change instrument
  • show fretboard
  • metronome
×
Best way to learn
"Carry That Weight"
Autoscroll
slow
fast
+/-
esc
set tempo
stop
Contributor
  ---------------------------------------------------------------
  
  THE BEATLES - CARRY THAT WEIGHT (Lennon & McCartney) From ABBEY 
                ROAD album. Released on 26th September 1969.

  ---------------------------------------------------------------

  Tabbed by:PJVillanueva






  Boy, you're going to carry that weight
  Carry that weight a long time
  Boy, you're going to carry that weight
  Carry that weight a long time

  I never give you my pillow
  I only send you my invitation
  And in the middle of the celebrations
  I break down

  Boy, you're going to carry that weight
  Carry that weight a long time
  Boy, you're going to carry that weight
  Carry that weight a long time




                                                  x X   X x X x
                                                  C
e|------- ------- ------- -------|------- ------- 3------ 3------|
B|-------------------------------|----------------5-------5------|
G|-------------------------------|----------------5-------5------|
D|-------------------------------|--------------------5-------5--|
A|-------------------------------|-------------------------------|
E|-------------------------------|-------------------------------|



  CHORUS
                                  G
e|3------ 3------ 3------ 3------|3------ 3------ 3------ 3------|
B|5-------5-------5-------5------|3-------3-------3-------3------|
G|5-------5-------5-------5------|4-------4-------4-------4------|
D|----5-------5-------5-------5--|----5-------5-------5-------5--|
A|-------------------------------|-------------------------------|
E|-------------------------------|-------------------------------|
  Boy                 you're      carry   that
                          gonna               weight


                                  C
e|3------ 3------ 3------ 3------|3------ 3------ 3---3-3 --3-3--|
B|3-------3-------3-------3------|5-------5-------5---5-5---5-5--|
G|4-------4-------4-------4------|5-------5-------5---5-5---5-5--|
D|----5-------5-------5-------5--|----5-------5-----5-----5------|
A|-------------------------------|-------------------------------|
E|-------------------------------|-------------------------------|
  carry   that            a   long    time
              weight



e|3------ 3------ 3------ 3------|3------ 3------ 3------ 3------|
B|5-------5-------5-------5------|3-------3-------3-------3------|
G|5-------5-------5-------5------|4-------4-------4-------4------|
D|----5-------5-------5-------5--|----5-------5-------5-------5--|
A|-------------------------------|-------------------------------|
E|-------------------------------|-------------------------------|
  Boy                 you're      carry   that
                          gonna               weight



e|3------ 3------ 3------ 3------|3------ 3------ 3------ 3------|
B|3-------3-------3-------3------|5-------5-------3-------3------|
G|4-------4-------4-------4------|5-------5-------4-------4------|
D|----5-------5-------5-------5--|----5-------5-------5-------5--|
A|-------------------------------|-------------------------------|
E|-------------------------------|-------------------------------|
  carry   that            a   long    time
              weight


           (Recapitulation of You Never Give Me Your Money)
  00:24 
      Am                          Dmadd9      Dm
e|----12- 12--12- 12--12- 12-----|12----- ----10- ------- -------|
B|----13--13--13--13--13--13-----|10----------10-----------------|
G|----14--14--14--14--14--14-----|10----------10-----------------|
D|-------------------------------|-0-----------------------------|
A|0------------------------------|-------------------------------|
E|-------------------------------|-------------------------------|




      G                           G7          C
e|----10- 10--10- 10--10- 10-----|13----- 12----- ------- -------|
B|----12--12--12--12--12--12-----|12----------13------13---------|
G|----12--12--12--12--12--12-----|12----------12------12---------|
D|-------------------------------|--------------------14---------|
A|10-----------------------------|-------------------------------|
E|-------------------------------|-------------------------------|



  00:36
  F                               Esus4           E
e|-8----- ------- ------- -------|-7----- ------- 7------ -------|
B|10-----------------------------|10--------------9--------------|
G|10-----------------------------|-9--------------9--------------|
D|-------------------------------|-------------------------------|
A|-------------------------------|-------------------------------|
E|-------------------------------|-------------------------------|

e|------- ------- ------- -------|------- 5------ ------- -------|
B|-------------------------------|-------------------------------|
G|--------5------B8R7-5---5---7-5|7B9---------7B8-----7---5---7--|
D/7-----------7---------7--------|-------------------------------|
A|-------------------------------|-------------------------------|
E|-------------------------------|-------------------------------|




  Am
e|-8----- ------- ------- -------|
B|10-----------------------------|
G|-9-----------------------------|
D|-------------------------------|
A|-------------------------------|
E|-------------------------------|

e|------- ------- ------- -------|
B|-------------------------------|
G|5------------------------------|
D|------------7P5-7--~-----------|
A|-------------------------------|
E|-------------------------------|



  00:44
      Am7                                     Dm
e|----3-- 3---3-- 3---3-- 3------|3------ ----1-- ------- -------|
B|----1---1---1---1---1---1------|1-----------3------------------|
G|----2---2---2---2---2---2------|2-----------2------------------|
D|-------------------------------|------------0------------------|
A|0------------------------------|0------------------------------|
E|-------------------------------|-------------------------------|
      I   never   give    my      pillow
                      you


  G7                              Csus4   C
e|----1-- 1---1-- 1---1-- 1------|1------ 0------ ------- -------|
B|----3---3---3---3---3---3------|1-------1---1------------------|
G|----0---0---0---0---0---0------|0-------0---0-------0----------|
D|-------------------------------|--------------------2----------|
A|-------------------------------|3-----------3------------------|
E|3------------------------------|-------------------------------|
      I   only    send    my      invitation
                      you


  Fmaj7                               Bm7     E7          E
e|--0-0-- 0-----0 --0---0 0-0-0--|----5-- ----4-- ------7 -------|
B|--1-1---1-----1---1---1-1-1-1--|----3-------3-------------5----|
G|--2-2---2-----2---2---2-2-2-2--|----2-------4-------------4----|
D|-------------------------------|------------2-----------6------|
A|-------------------------------|2------------------------------|
E|1------------------------------|-------------------------------|
      And in  the middle  of  the celebrations                I



  Am                              G                   Gsus4/6 G
e|------- ------- ------- 0------|3------ 0------ ----0-- 0---3--|
B|------------1-----------1------|3-------1-----------1---1---0--|
G|2-----------2-----------2------|0-------0-----------0---0---0--|
D|2-----------2------------------|-------------------------------|
A|0------------------------------|-------------------------------|
E|-------------------------------|3-------3-----------3---3---3--|
  break       down


  CHORUS
  01:07                                       

e|3------ 3------ 3------ 3------|3------ 3------ 3------ 3------|
B|5-------5-------5-------5------|3-------3-------3-------3------|
G|5-------5-------5-------5------|4-------4-------4-------4------|
D|----5--------------------------|----5-------5-------5-------5--|
A|-------------------------------|-------------------------------|
E|-------------------------------|-------------------------------|
  Boy                 you're      carry   that
                          gonna               weight



e|3------ 3------ 3------ 3------|3------ 3------ 3-3-3-3 3-3-3--|
B|3-------3-------3-------3------|5-------5-------5-5-5-5-5-5-5--|
G|4-------4-------4-------4------|5-------5-------5-5-5-5-5-5-5--|
D|----5-------5-------5-------5--|------------5------------------|
A|-------------------------------|-------------------------------|
E|-------------------------------|-------------------------------|
  carry   that            a   long    time
              weight



e|3------ 3------ 3------ 3------|3------ 3------ 3------ 3------|
B|5-------5-------5-------5------|3-------3-------3-------3------|
G|5-------5-------5-------5------|4-------4-------4-------4------|
D|----5-------5------------------|----5-------5---------------5--|
A|-------------------------------|-------------------------------|
E|-------------------------------|-------------------------------|
  Boy                 you're      carry   that
                          gonna               weight



e|3------ 3------ 3------ 3------|
B|3-------3-------3-------3------|
G|4-------4-------4-------4------|
D|----5-------5-------5---5------|
A|-------------------------------|
E|-------------------------------|
  carry   that            a   long    
              weight


  CODA
  C           Cmaj7               A
e|0------ ----0-- ------- 0------|0------ ------- ------- -------|
B|1-----------1-----------1------|2------------------------------|
G|0-----------0-----------0------|2------------------------------|
D|-------------------------------|-------------------------------|
A|3-----------2-----------2------|0------------------------------|
E|-------------------------------|-------------------------------|

e|------- ------- ------- -------|------- ----5-- ------- -------|
B|------------------------0------|-------------------------------|
G|--------0-----------0-------0--|--------2----------------------|
D|----2-----------0--------------|----2--------------------------|
A|3-----------2------------------|0------------------------------|
E|-------------------------------|-------------------------------|
      time




e|3---3-- ----3-- ------- -------|0------ ------- ------- -------|
B|5---5-------5------------------|2------------------------------|
G|5---5-------4------------------|2------------------------------|
D|5---5-------5------------------|-------------------------------|
A|-------------------------------|0------------------------------|
E|-------------------------------|-------------------------------|

e|------- ------- ------- -------|------- ----5-- ------- -------|
B|------------------------0------|-------------------------------|
G|--------0-----------0-------0--|--------2----------------------|
D|----2-----------0--------------|----2--------------------------|
A|3-----------2------------------|0------------------------------|
E|-------------------------------|-------------------------------|



   This ending was assembled to The End crossfading both numbers.








        B  Bend
        R  Release
        /  Slide up
        \  Slide down
        H  Hammer-on
        P  Pull-off
        ~  Vibrato
        +  Harmonic
        x  Mute note
        .  Play note like a dot in standard notation
        ^  Ties two notes together
        (. Pause

comments
print report bad tab
I want to post or [tab]
guest
You may want to rate the tab now too:
select rating
Please do not post tabs as comments. Select "correction" instead!