Oops, an error
Loading. Please wait.

Catswalk tab

1,811 views 1 this week
2 commentsread comments
1 2 3 4 5
x 3
add to favorites
×
Save as Personal and add changes to this tab that will be seen only by you. Learn more ›
×
You can save this tab as Personal to edit and correct it or add notes. All changes will be seen only by you. Learn more »
launch autoscroll
font size
0
reset
how to read this tab
guitar tuner
edit
Autoscroll
slow
fast
+/-
esc
set tempo
stop
Author
CATSWALK


Written by Paul McCartney



   Tune your bass 1/4 step down (not half)


  t=132

  VERSE

   Gm              D#                A#              D
e|--------------3------------------|---------------------------------|
B|---------3-------4---------------|-6---------------3---------------|
G|------3--------------------------|---------------------------------|
D|-5-------------------------------|---------------------------------|
A|---------------------------------|---------------------------------|
E|---------------------------------|---------------------------------|




   Gm              Cm                D#              Gm
e|--------------3------------------|---------------------------------|
B|---------3-----------------------|-4----3--------------------------|
G|------3----------5---------------|---------------------------------|
D|-5-------------------------------|--------------5------------------|
A|---------------------------------|---------------------------------|
E|---------------------------------|---------------------------------|




                   D#                A#              D
e|--------------3------------------|---------------------------------|
B|---------3-------4---------------|-6---------------3---------------|
G|------3--------------------------|---------------------------------|
D|-5-------------------------------|---------------------------------|
A|---------------------------------|---------------------------------|
E|---------------------------------|---------------------------------|




   Gm              Cm                D#              Gm
e|--------------3------------------|---------------------------------|
B|---------3-----------------------|-4----3--------------------------|
G|------3----------5---------------|---------------------------------|
D|-5-------------------------------|--------------5------------------|
A|---------------------------------|---------------------------------|
E|---------------------------------|---------------------------------|





  BRIDGE


   C#              Fm                A#              G#
e|---------------------------------|---------4-----------------------|
B|-2----1---------------------8----|-6-----------------------4-----4-|
G|-----------------------5---------|---------------------5-------5---|
D|-----------3---------------------|---------------------------------|
A|---------------------------------|---------------------------------|
E|---------------------------------|---------------------------------|




   C                 Fm              Bbm 
e|-----------------|---------------------------------|
B|-5---------------|---------------------------------|
G|-----------------|-5----5----5-----6----6----6-----|
D|-----------------|-6----6----6-----8----8----8-----|
A|-----------------|---------------------------------|
E|-----------------|---------------------------------|




   Fm              F#m
e|---------------------------------|
B|---------------------------------|
G|-5---------------6---------------|
D|-6---------------7---------------|
A|---------------------------------|
E|---------------------------------|




   Gm              D#                Gm              D#
e|-3-------3-------6---------------|-3----3----3-----6---------------|
B|-3-------3-------8---------------|-3----3----3-----8---------------|
G|---------------------------------|---------------------------------|
D|---------------------------------|---------------------------------|
A|---------------------------------|---------------------------------|
E|---------------------------------|---------------------------------|




   A                                 D
e|-5----5----5-----5----5-\--------|-10----------12--10--------------|
B|-5----5----5-----5----5-\--------|---------------------------------|
G|---------------------------------|---------------------------------|
D|---------------------------------|---------------------------------|
A|---------------------------------|---------------------------------|
E|---------------------------------|---------------------------------|





  VERSE


e|--------------3------------------|---------------------------------|
B|---------3-------4---------------|-6---------------3---------------|
G|------3--------------------------|---------------------------------|
D|-5-------------------------------|---------------------------------|
A|---------------------------------|---------------------------------|
E|---------------------------------|---------------------------------|





e|--------------3------------------|---------------------------------|
B|---------3-----------------------|-4----3--------------------------|
G|------3----------5---------------|---------------------------------|
D|-5-------------------------------|--------------5------------------|
A|---------------------------------|---------------------------------|
E|---------------------------------|---------------------------------|





e|--------------3------------------|---------------------------------|
B|---------3-------4---------------|-6---------------7---------------|
G|------3--------------------------|---------------------------------|
D|-5-------------------------------|---------------------------------|
A|---------------------------------|---------------------------------|
E|---------------------------------|---------------------------------|





e|--------------3------------------|---------------------------------|
B|---------3-----------------------|-4----3--------------------------|
G|------3----------5---------------|---------------------------------|
D|-5-------------------------------|--------------5------------------|
A|---------------------------------|---------------------------------|
E|---------------------------------|---------------------------------|





  BRIDGE


e|---------------------------------|---------4-----------------------|
B|-2----1---------------------8----|-6-----------------------4-----4-|
G|-----------------------5---------|---------------------5-------5---|
D|-----------3---------------------|---------------------------------|
A|---------------------------------|---------------------------------|
E|---------------------------------|---------------------------------|





e|-----------------|---------------------------------|
B|-5---------------|---------------------------------|
G|-----------------|-5----5----5-----6----6----6-----|
D|-----------------|-6----6----6-----8----8----8-----|
A|-----------------|---------------------------------|
E|-----------------|---------------------------------|





e|---------------------------------|
B|---------------------------------|
G|-5---------------6---------------|
D|-6---------------7---------------|
A|---------------------------------|
E|---------------------------------|





e|-3-------3-------6---------------|-3----3----3-----6---------------|
B|-3-------3-------8---------------|-3----3----3-----8---------------|
G|---------------------------------|---------------------------------|
D|---------------------------------|---------------------------------|
A|---------------------------------|---------------------------------|
E|---------------------------------|---------------------------------|





e|-5----5----5-----5----5-\--------|-10----------12--10--------------|
B|-5----5----5-----5----5-\--------|---------------------------------|
G|---------------------------------|---------------------------------|
D|---------------------------------|---------------------------------|
A|---------------------------------|---------------------------------|
E|---------------------------------|---------------------------------|





  VERSE


e|--------------3------------------|---------------------------------|
B|---------3-------4---------------|-6---------------3---------------|
G|------3--------------------------|---------------------------------|
D|-5-------------------------------|---------------------------------|
A|---------------------------------|---------------------------------|
E|---------------------------------|---------------------------------|





e|--------------3------------------|---------------------------------|
B|---------3-----------------------|-4----3--------------------------|
G|------3----------5---------------|---------------------------------|
D|-5-------------------------------|--------------5------------------|
A|---------------------------------|---------------------------------|
E|---------------------------------|---------------------------------|





e|--------------3------------------|---------------------------------|
B|---------3-------4---------------|-6---------------7---------------|
G|------3--------------------------|---------------------------------|
D|-5-------------------------------|---------------------------------|
A|---------------------------------|---------------------------------|
E|---------------------------------|---------------------------------|





e|--------------3------------------|---------------------------------|
B|---------3-----------------------|-4----3--------------------------|
G|------3----------5---------------|---------------------------------|
D|-5-------------------------------|-----------------5-------3-------|
A|---------------------------------|---------------------------------|
E|---------------------------------|---------------------------------|






e|---------------------------------|---------------------------------|
B|---------------------------------|---------------------------------|
G|---------------------------------|---------------------------------|
D|-1-------0-------4----4-------5--|---------------------------------|
A|-----------------5----5-------5--|---------------------------------|
E|---------------------------------|---------------------------------|
Suggest correction
Creating personal tab
Creating personal tab
You can edit any tab online and save it as your Personal.

You can edit, replace or remove any tab part or add personal notes – all changes will be seen only by you.

Personal tabs can be accessed anytime from any device, even offline.
Learn more »
Give kudos to tab author, rate the tab!
1 2 3 4 5
comments
print report bad tab
2 comments total.
0 reply
otsonordberg 10 Sep 11, 2013 12:00 AM

what is the story of this song? a heard there was a story!

guest
You may want to rate the tab now too:
select rating
Wanna post a correction for this tab? Suggest correction