Oops, an error
Loading. Please wait.

Come Together Bass Tab

version 1
489,379 views 894 this week
29 commentsread comments
1 2 3 4 5
accurate
x 127
add to favorites
launch autoscroll
font size
0
reset
guitar tuner
Tab Pro tools
  • play this tab
  • loop segment
  • change instrument
  • show fretboard
  • metronome
×
Best way to learn
"Come Together"
Autoscroll
slow
fast
+/-
esc
set tempo
stop
Contributor
Music: Come Together
Artist: Beatles
Album: Abbey Road


G|--------------10^-------|
D|------------------12\5--|
A|--------10h12-----------|
E|--10-10-----------------|

G|-------------------------|
D|-------------------------|
A|--12--12|12-12|12-12|12--|
E|-------------------------|

G|--------------10^-------|
D|------------------12\5--|
A|--------10h12-----------|  x8
E|--10-10-----------------|

G|-------------------------|
D|-------------------------|
A|--12--12|12-12|12-12|12--|
E|-------------------------|

G|------------------------------------------|
D|------------------------------------------|
A|--14-14-14-14-14-14-12-12-------------12--|
E|--------------------------15-15-15-15-----|

G|--------------10^-------|
D|------------------12\5--|
A|--------10h12-----------| x3
E|--10-10-----------------|

G|--------------10^-10h12-10h12-----|
D|------------------------------12--|
A|--------10h12---------------------|
E|--10-10---------------------------|

G|--------------10^-------|
D|------------------12\5--|
A|--------10h12-----------| x4
E|--10-10-----------------|

G|-------------------------|
D|-------------------------|
A|--12--12|12-12|12-12|12--|
E|-------------------------|

G|------------------------------------------|
D|------------------------------------------|
A|--14-14-14-14-14-14-12-12-------------12--|
E|--------------------------15-15-15-15-----|

G|--------------10^-------|
D|------------------12\5--|
A|--------10h12-----------| x6
E|--10-10-----------------|

G|-------------------------|
D|-------------------------|
A|--12--12|12-12|12-12|12--| x2
E|-------------------------|

G|--------------10^-------|
D|------------------12\5--|
A|--------10h12-----------|
E|--10-10-----------------|

G|--------------10^-10h12-10h12-10\--|
D|-----------------------------------|
A|--------10h12----------------------|
E|--10-10----------------------------|

G|--------------10^-------|
D|------------------12\5--|
A|--------10h12-----------| x4
E|--10-10-----------------|

G|-------------------------|
D|-------------------------|
A|--12--12|12-12|12-12|12--|
E|-------------------------|

G|------------------------------------------|
D|------------------------------------------|
A|--14-14-14-14-14-14-12-12-------------12--|
E|--------------------------15-15-15-15-----|

G|--------------10^-------|
D|------------------12\5--|
A|--------10h12-----------| x3
E|--10-10-----------------|

G|-------------------------------|
D|-------------------------------|
A|--------10h12-10h12-10h12-10\--|
E|--10-10------------------------|

G|-------------------------|
D|-------------------------|
A|--12--12|12-12|12-12|12--| x20
E|-------------------------|


#######################

Legend:

^ = Bend
\ = Slide Down
h = Hammer-On
| = Sequence Note


Autor: Diego Fernandes
E-mail: l0rd_ph4nt0m@hotmail.com
comments
print report bad tab
29 comments total. Showing first comments. show 1 bad comment
+8 reply
Ron Curtis wrote on October 8 2005, 05:43 pm

Dude, what ever. It's just too hard for you. Becuase this tab is awesome

+4 reply
Incubus_SCIENCE wrote on January 7 2006, 01:05 pm

5th fret, and slide up. not tenth. you can hear him slide.

I want to post or [tab]
guest
You may want to rate the tab now too:
select rating
Please do not post tabs as comments. Select "correction" instead!