Oops, an error
Loading. Please wait.

Come Together Chords

version 1
version 1

Whole song

Video

1,197,166 views 3,084 this week
31 commentsread comments
1 2 3 4 5
accurate
x 384
add to favorites
launch autoscroll
font size
0
reset
transpose
0
reset
simplify chords
display chords
guitar tuner
Tab Pro tools
  • play this tab
  • loop segment
  • change instrument
  • show fretboard
  • metronome
×
Best way to learn
"Come Together"
Autoscroll
slow
fast
+/-
esc
set tempo
stop
[Intro]

e|------------1--------------|
B|------------1--3-----------|
G|------0h2------------------|
D|0--0-----------------------| x4
A|---------------------------|
E|---------------------------|


[Verse]

Dm
Here come old flat top, He come grooving up slowly,
Dm
He got Joo Joo eyeball, He one holy roller 
        A7              
He got  Hair down to his knee;  
G7
Got to be a joker, he just do what he please.


[Instrumental]         
                          
e|------------1--------------|
B|------------1--3-----------|
G|------0h2------------------| x2
D|0--0-----------------------|
A|---------------------------|
E|---------------------------|
 

[Verse]

Dm                      
He wear no shoe shine, he got toe jam football
Dm
He got monkey finger, he shoot co-ca cola
        A7 
He say, "I know you, you know me."  
G7
One thing I can tell you is you got to be free


[Chorus]

     Bm              G
Come Together, Right now, over me


[Instrumental]
                         
e|------------1--------------|
B|------------1--3-----------|
G|------0h2------------------| x2
D|0--0-----------------------|
A|---------------------------|
E|---------------------------|
     
               
[Verse]

Dm
He bag production, He got wal-rus gumboot
Dm
He got O-no sideboard, He one spinal cracker
       A7
He got feet down below his knee
G7
Hold you in his armchair, you can feel his disease 


[Chorus]

     Bm              G
Come together, right now,  over me


[Instrumental]
                         
e|------------1--------------|
B|------------1--3-----------|
G|------0h2------------------| x2
D|0--0-----------------------|
A|---------------------------|
E|---------------------------|
     

[Verse]

Dm
He roller coaster, he got early warning
Dm
He got muddy water, He one Mo-jo filter
        A7
He say, " One and one and one is three."
G7
Got to be good looking 'cause he so hard to see 


[Chorus]

     Bm
Come together, Right now, over me
comments
print report bad tab
31 comments total. Showing first comments. show 1 bad comment
0 reply
gmsje wrote on June 24 2005, 12:00 am

I like this tab, but I think the A7 002020 sounds better. Also, that A7 goes well for the end of the "over me" phrase, and right back to Dm during the signature riff (which is of course from Dm).

+4 reply
lou_dog69 wrote on March 21 2006, 10:42 pm

i always thought it was A E G A in the chorus. meh im probably wrong and the intro sounds better like this
--------------------
--------------------
------------10------
-0-0------------12\-
------10h12---------
--------------------

I want to post or [tab]
guest
You may want to rate the tab now too:
select rating
Please do not post tabs as comments. Select "correction" instead!