Oops, an error
Loading. Please wait.
We have an official Come Together tab made by UG professional guitarists. Check out the tab »
×

Come Together chords

version 1
version 1

Whole song

  • Complete chord sheet including instrumental sectio... Show more
  • An effective acoustic version, in simple dropped t... Show more

Video

1,477,311 views 4,434 this week
36 commentsread comments
1 2 3 4 5
x 829
add to favorites
×
Save as Personal and add changes to this tab that will be seen only by you. Learn more ›
×
You can save this tab as Personal to edit and correct it or add notes. All changes will be seen only by you. Learn more »
launch autoscroll
font size
0
reset
transpose
0
reset
simplify chords
display chords
guitar tuner
backing track
0:00
0:00
edit
Autoscroll
slow
fast
+/-
esc
set tempo
stop
Strumming Are these strumming patterns correct? Yes No
Verses 80 bpm
1
 
 
2
 
 
3
 
 
4
 
 
5
 
 
6
 
 
7
 
 
8
 
 
Listen
Coro 80 bpm
1
&
2
&
3
&
4
&
Listen
[Intro]

e|------------1--------------|
B|------------1--3-----------|
G|------0h2------------------|
D|0--0-----------------------| x4
A|---------------------------|
E|---------------------------|


[Verse]

Dm
Here come old flat top, He come grooving up slowly,
Dm
He got Joo Joo eyeball, He one holy roller 
        A7              
He got  Hair down to his knee;  
G7
Got to be a joker, he just do what he please.


[Instrumental]         
                          
e|------------1--------------|
B|------------1--3-----------|
G|------0h2------------------| x4
D|0--0-----------------------|
A|---------------------------|
E|---------------------------|
 

[Verse]

Dm                      
He wear no shoe shine, he got toe jam football
Dm
He got monkey finger, he shoot co-ca cola
        A7 
He say, "I know you, you know me."  
G7
One thing I can tell you is you got to be free


[Chorus]

     Bm              G  A
Come Together, Right now, over me


[Instrumental]
                         
e|------------1--------------|
B|------------1--3-----------|
G|------0h2------------------| x4
D|0--0-----------------------|
A|---------------------------|
E|---------------------------|
     
               
[Verse]

Dm
He bag production, He got wal-rus gumboot
Dm
He got O-no sideboard, He one spinal cracker
       A7
He got feet down below his knee
G7
Hold you in his armchair, you can feel his disease 


[Chorus]

     Bm              G   A
Come together, right now,  over me


[Instrumental]
                         
e|------------1--------------|
B|------------1--3-----------|
G|------0h2------------------| x4
D|0--0-----------------------|
A|---------------------------|
E|---------------------------|
     

[Verse]

Dm
He roller coaster, he got early warning
Dm
He got muddy water, He one Mo-jo filter
        A7
He say, " One and one and one is three."
G7
Got to be good looking 'cause he so hard to see 


[Chorus]

     Bm              G   A
Come together, Right now, over me

            
            
Suggest correction
Creating personal tab
Creating personal tab
You can edit any tab online and save it as your Personal.

You can edit, replace or remove any tab part or add personal notes – all changes will be seen only by you.

Personal tabs can be accessed anytime from any device, even offline.
Learn more »
comments
print report bad tab
36 comments total. Showing first comments.
+4 reply
Taz141 0 Apr 14, 2002 08:00 PM

This is a pretty good tab, It's better than anyone i have found anyways. well if yall have any more tabs for the beatles e-mail them to me at Taz141@aol.com

+3 reply
gmsje 30 Jun 23, 2005 08:00 PM

I like this tab, but I think the A7 002020 sounds better. Also, that A7 goes well for the end of the "over me" phrase, and right back to Dm during the signature riff (which is of course from Dm).

+11 reply
lou_dog69 20 Mar 21, 2006 05:42 PM

i always thought it was A E G A in the chorus. meh im probably wrong and the intro sounds better like this
--------------------
--------------------
------------10------
-0-0------------12\-
------10h12---------
--------------------

guest
Wanna post a correction for this tab? Suggest correction